  0
SECTION
  2
HEADER
  9
$ACADVER
  1
AC1015
  9
$ACADMAINTVER
 70
     6
  9
$DWGCODEPAGE
  3
ANSI_1254
  9
$INSBASE
 10
0.0
 20
0.0
 30
0.0
  9
$EXTMIN
 10
0.0
 20
0.0
 30
0.0
  9
$EXTMAX
 10
279.4
 20
215.9
 30
0.0
  9
$LIMMIN
 10
0.0
 20
0.0
  9
$LIMMAX
 10
279.4
 20
215.9
  9
$ORTHOMODE
 70
     0
  9
$REGENMODE
 70
     1
  9
$FILLMODE
 70
     1
  9
$QTEXTMODE
 70
     0
  9
$MIRRTEXT
 70
     1
  9
$LTSCALE
 40
1.0
  9
$ATTMODE
 70
     1
  9
$TEXTSIZE
 40
3.5
  9
$TRACEWID
 40
1.0
  9
$TEXTSTYLE
  7
Standard
  9
$CLAYER
  8
0
  9
$CELTYPE
  6
ByLayer
  9
$CECOLOR
 62
   256
  9
$CELTSCALE
 40
1.0
  9
$DISPSILH
 70
     0
  9
$DIMSCALE
 40
1.0
  9
$DIMASZ
 40
3.5
  9
$DIMEXO
 40
1.0
  9
$DIMDLI
 40
3.75
  9
$DIMRND
 40
0.0
  9
$DIMDLE
 40
0.0
  9
$DIMEXE
 40
1.0
  9
$DIMTP
 40
0.0
  9
$DIMTM
 40
0.0
  9
$DIMTXT
 40
3.5
  9
$DIMCEN
 40
2.5
  9
$DIMTSZ
 40
0.0
  9
$DIMTOL
 70
     0
  9
$DIMLIM
 70
     0
  9
$DIMTIH
 70
     1
  9
$DIMTOH
 70
     1
  9
$DIMSE1
 70
     0
  9
$DIMSE2
 70
     0
  9
$DIMTAD
 70
     1
  9
$DIMZIN
 70
     0
  9
$DIMBLK
  1

  9
$DIMASO
 70
     1
  9
$DIMSHO
 70
     1
  9
$DIMPOST
  1

  9
$DIMAPOST
  1

  9
$DIMALT
 70
     0
  9
$DIMALTD
 70
     3
  9
$DIMALTF
 40
0.0393700787
  9
$DIMLFAC
 40
1.0
  9
$DIMTOFL
 70
     1
  9
$DIMTVP
 40
0.0
  9
$DIMTIX
 70
     0
  9
$DIMSOXD
 70
     0
  9
$DIMSAH
 70
     0
  9
$DIMBLK1
  1

  9
$DIMBLK2
  1

  9
$DIMSTYLE
  2
ISO-25
  9
$DIMCLRD
 70
     0
  9
$DIMCLRE
 70
     0
  9
$DIMCLRT
 70
     0
  9
$DIMTFAC
 40
1.0
  9
$DIMGAP
 40
1.524
  9
$DIMJUST
 70
     0
  9
$DIMSD1
 70
     0
  9
$DIMSD2
 70
     0
  9
$DIMTOLJ
 70
     0
  9
$DIMTZIN
 70
     0
  9
$DIMALTZ
 70
     0
  9
$DIMALTTZ
 70
     0
  9
$DIMUPT
 70
     0
  9
$DIMDEC
 70
     2
  9
$DIMTDEC
 70
     2
  9
$DIMALTU
 70
     2
  9
$DIMALTTD
 70
     3
  9
$DIMTXSTY
  7
Standard
  9
$DIMAUNIT
 70
     0
  9
$DIMADEC
 70
     2
  9
$DIMALTRND
 40
0.0
  9
$DIMAZIN
 70
     0
  9
$DIMDSEP
 70
    44
  9
$DIMATFIT
 70
     3
  9
$DIMFRAC
 70
     0
  9
$DIMLDRBLK
  1

  9
$DIMLUNIT
 70
     2
  9
$DIMLWD
 70
    -2
  9
$DIMLWE
 70
    -2
  9
$DIMTMOVE
 70
     0
  9
$LUNITS
 70
     2
  9
$LUPREC
 70
     2
  9
$SKETCHINC
 40
1.0
  9
$FILLETRAD
 40
10.0
  9
$AUNITS
 70
     0
  9
$AUPREC
 70
     2
  9
$MENU
  1
.
  9
$ELEVATION
 40
0.0
  9
$PELEVATION
 40
0.0
  9
$THICKNESS
 40
0.0
  9
$LIMCHECK
 70
     0
  9
$CHAMFERA
 40
0.0
  9
$CHAMFERB
 40
0.0
  9
$CHAMFERC
 40
0.0
  9
$CHAMFERD
 40
0.0
  9
$SKPOLY
 70
     0
  9
$TDCREATE
 40
2459948.579381921
  9
$TDUCREATE
 40
2459948.454381921
  9
$TDUPDATE
 40
2459948.579382107
  9
$TDUUPDATE
 40
2459948.454382107
  9
$TDINDWG
 40
0.0000000116
  9
$TDUSRTIMER
 40
0.0000000116
  9
$USRTIMER
 70
     1
  9
$ANGBASE
 50
0.0
  9
$ANGDIR
 70
     0
  9
$PDMODE
 70
     0
  9
$PDSIZE
 40
-1.0
  9
$PLINEWID
 40
0.0
  9
$SPLFRAME
 70
     0
  9
$SPLINETYPE
 70
     6
  9
$SPLINESEGS
 70
     8
  9
$HANDSEED
  5
16B
  9
$SURFTAB1
 70
     6
  9
$SURFTAB2
 70
     6
  9
$SURFTYPE
 70
     6
  9
$SURFU
 70
     6
  9
$SURFV
 70
     6
  9
$UCSBASE
  2

  9
$UCSNAME
  2

  9
$UCSORG
 10
0.0
 20
0.0
 30
0.0
  9
$UCSXDIR
 10
1.0
 20
0.0
 30
0.0
  9
$UCSYDIR
 10
0.0
 20
1.0
 30
0.0
  9
$UCSORTHOREF
  2

  9
$UCSORTHOVIEW
 70
     0
  9
$UCSORGTOP
 10
0.0
 20
0.0
 30
0.0
  9
$UCSORGBOTTOM
 10
0.0
 20
0.0
 30
0.0
  9
$UCSORGLEFT
 10
0.0
 20
0.0
 30
0.0
  9
$UCSORGRIGHT
 10
0.0
 20
0.0
 30
0.0
  9
$UCSORGFRONT
 10
0.0
 20
0.0
 30
0.0
  9
$UCSORGBACK
 10
0.0
 20
0.0
 30
0.0
  9
$PUCSBASE
  2

  9
$PUCSNAME
  2

  9
$PUCSORG
 10
0.0
 20
0.0
 30
0.0
  9
$PUCSXDIR
 10
1.0
 20
0.0
 30
0.0
  9
$PUCSYDIR
 10
0.0
 20
1.0
 30
0.0
  9
$PUCSORTHOREF
  2

  9
$PUCSORTHOVIEW
 70
     0
  9
$PUCSORGTOP
 10
0.0
 20
0.0
 30
0.0
  9
$PUCSORGBOTTOM
 10
0.0
 20
0.0
 30
0.0
  9
$PUCSORGLEFT
 10
0.0
 20
0.0
 30
0.0
  9
$PUCSORGRIGHT
 10
0.0
 20
0.0
 30
0.0
  9
$PUCSORGFRONT
 10
0.0
 20
0.0
 30
0.0
  9
$PUCSORGBACK
 10
0.0
 20
0.0
 30
0.0
  9
$USERI1
 70
     0
  9
$USERI2
 70
     0
  9
$USERI3
 70
     0
  9
$USERI4
 70
     0
  9
$USERI5
 70
     0
  9
$USERR1
 40
0.0
  9
$USERR2
 40
0.0
  9
$USERR3
 40
0.0
  9
$USERR4
 40
0.0
  9
$USERR5
 40
0.0
  9
$WORLDVIEW
 70
     1
  9
$SHADEDGE
 70
     3
  9
$SHADEDIF
 70
    70
  9
$TILEMODE
 70
     1
  9
$MAXACTVP
 70
    64
  9
$PINSBASE
 10
0.0
 20
0.0
 30
0.0
  9
$PLIMCHECK
 70
     0
  9
$PEXTMIN
 10
1.0000000000E+20
 20
1.0000000000E+20
 30
1.0000000000E+20
  9
$PEXTMAX
 10
-1.0000000000E+20
 20
-1.0000000000E+20
 30
-1.0000000000E+20
  9
$PLIMMIN
 10
0.0
 20
0.0
  9
$PLIMMAX
 10
420.0
 20
297.0
  9
$UNITMODE
 70
     0
  9
$VISRETAIN
 70
     1
  9
$PLINEGEN
 70
     0
  9
$PSLTSCALE
 70
     1
  9
$TREEDEPTH
 70
  3020
  9
$CMLSTYLE
  2
Standard
  9
$CMLJUST
 70
     0
  9
$CMLSCALE
 40
20.0
  9
$PROXYGRAPHICS
 70
     1
  9
$MEASUREMENT
 70
     1
  9
$CELWEIGHT
370
    -1
  9
$ENDCAPS
280
     0
  9
$JOINSTYLE
280
     0
  9
$LWDISPLAY
290
     1
  9
$INSUNITS
 70
     4
  9
$HYPERLINKBASE
  1

  9
$STYLESHEET
  1

  9
$XEDIT
290
     1
  9
$CEPSNTYPE
380
     0
  9
$PSTYLEMODE
290
     1
  9
$FINGERPRINTGUID
  2
{5dfa7d75-6135-425e-ae27-e26232568447}
  9
$VERSIONGUID
  2
{FAEB1C32-E019-11D5-929B-00C0DF256EC4}
  9
$EXTNAMES
290
     1
  9
$PSVPSCALE
 40
0.0
  9
$OLESTARTUP
290
     0
  0
ENDSEC
  0
SECTION
  2
CLASSES
  0
CLASS
  1
ACDBDICTIONARYWDFLT
  2
AcDbDictionaryWithDefault
  3
ObjectDBX Classes
 90
        0
280
     0
281
     0
  0
CLASS
  1
VISUALSTYLE
  2
AcDbVisualStyle
  3
ObjectDBX Classes
 90
     4095
280
     0
281
     0
  0
CLASS
  1
MATERIAL
  2
AcDbMaterial
  3
ObjectDBX Classes
 90
     1153
280
     0
281
     0
  0
CLASS
  1
SCALE
  2
AcDbScale
  3
ObjectDBX Classes
 90
     1153
280
     0
281
     0
  0
CLASS
  1
TABLESTYLE
  2
AcDbTableStyle
  3
ObjectDBX Classes
 90
     4095
280
     0
281
     0
  0
CLASS
  1
MLEADERSTYLE
  2
AcDbMLeaderStyle
  3
ACDB_MLEADERSTYLE_CLASS
 90
     4095
280
     0
281
     0
  0
CLASS
  1
SUN
  2
AcDbSun
  3
SCENEOE
 90
     1153
280
     0
281
     0
  0
CLASS
  1
ACDBPLACEHOLDER
  2
AcDbPlaceHolder
  3
ObjectDBX Classes
 90
        0
280
     0
281
     0
  0
CLASS
  1
LAYOUT
  2
AcDbLayout
  3
ObjectDBX Classes
 90
        0
280
     0
281
     0
  0
ENDSEC
  0
SECTION
  2
TABLES
  0
TABLE
  2
VPORT
  5
8
330
0
100
AcDbSymbolTable
 70
     1
  0
VPORT
  5
29
330
8
100
AcDbSymbolTableRecord
100
AcDbViewportTableRecord
  2
*Active
 70
     0
 10
0.0
 20
0.0
 11
1.0
 21
1.0
 12
139.7
 22
107.95
 13
0.0
 23
0.0
 14
10.0
 24
10.0
 15
10.0
 25
10.0
 16
0.0
 26
0.0
 36
1.0
 17
0.0
 27
0.0
 37
0.0
 40
215.9
 41
1.2941176471
 42
50.0
 43
0.0
 44
0.0
 50
0.0
 51
0.0
 71
     0
 72
  2000
 73
     1
 74
     3
 75
     0
 76
     0
 77
     0
 78
     0
281
     0
 65
     1
110
0.0
120
0.0
130
0.0
111
1.0
121
0.0
131
0.0
112
0.0
122
1.0
132
0.0
 79
     0
146
0.0
  0
ENDTAB
  0
TABLE
  2
LTYPE
  5
5
330
0
100
AcDbSymbolTable
 70
     6
  0
LTYPE
  5
14
330
5
100
AcDbSymbolTableRecord
100
AcDbLinetypeTableRecord
  2
ByBlock
 70
     0
  3

 72
    65
 73
     0
 40
0.0
  0
LTYPE
  5
15
330
5
100
AcDbSymbolTableRecord
100
AcDbLinetypeTableRecord
  2
ByLayer
 70
     0
  3

 72
    65
 73
     0
 40
0.0
  0
LTYPE
  5
16
330
5
100
AcDbSymbolTableRecord
100
AcDbLinetypeTableRecord
  2
Continuous
 70
     0
  3
Solid line
 72
    65
 73
     0
 40
0.0
  0
LTYPE
  5
6E
330
5
100
AcDbSymbolTableRecord
100
AcDbLinetypeTableRecord
  2
HIDDEN
 70
     0
  3
Hidden __ __ __ __ __ __ __ __ __ __ __ __ __ __
 72
    65
 73
     2
 40
1.905
 49
1.27
 74
     0
 49
-0.635
 74
     0
  0
LTYPE
  5
6F
330
5
100
AcDbSymbolTableRecord
100
AcDbLinetypeTableRecord
  2
PHANTOM
 70
     0
  3
Phantom ______  __  __  ______  __  __  ______
 72
    65
 73
     6
 40
12.7
 49
6.35
 74
     0
 49
-1.27
 74
     0
 49
1.27
 74
     0
 49
-1.27
 74
     0
 49
1.27
 74
     0
 49
-1.27
 74
     0
  0
LTYPE
  5
70
330
5
100
AcDbSymbolTableRecord
100
AcDbLinetypeTableRecord
  2
CENTER
 70
     0
  3
Center ____ _ ____ _ ____ _ ____ _ ____ _ ____
 72
    65
 73
     4
 40
10.16
 49
6.35
 74
     0
 49
-1.27
 74
     0
 49
1.27
 74
     0
 49
-1.27
 74
     0
  0
LTYPE
  5
71
330
5
100
AcDbSymbolTableRecord
100
AcDbLinetypeTableRecord
  2
CENTERX2
 70
     0
  3
Center (2x) ________  __  ________  __  _____
 72
    65
 73
     4
 40
20.32
 49
12.7
 74
     0
 49
-2.54
 74
     0
 49
2.54
 74
     0
 49
-2.54
 74
     0
  0
LTYPE
  5
72
330
5
100
AcDbSymbolTableRecord
100
AcDbLinetypeTableRecord
  2
DOT2
 70
     0
  3
Dot (.5x) ........................................
 72
    65
 73
     2
 40
0.635
 49
0.0
 74
     0
 49
-0.635
 74
     0
  0
ENDTAB
  0
TABLE
  2
LAYER
  5
2
330
0
100
AcDbSymbolTable
 70
    17
  0
LAYER
  5
10
330
2
100
AcDbSymbolTableRecord
100
AcDbLayerTableRecord
  2
0
 70
     0
 62
     7
  6
Continuous
370
    -3
390
F
  0
LAYER
  5
73
330
2
100
AcDbSymbolTableRecord
100
AcDbLayerTableRecord
  2
FORMAT
 70
     0
 62
     7
  6
Continuous
370
    -3
390
F
  0
LAYER
  5
74
330
2
100
AcDbSymbolTableRecord
100
AcDbLayerTableRecord
  2
YARDIMCI_GEOMETRI
 70
     0
 62
    -6
  6
Continuous
290
     0
370
    -3
390
F
  0
LAYER
  5
75
330
2
100
AcDbSymbolTableRecord
100
AcDbLayerTableRecord
  2
SAYFA_CERCEVESI
 70
     0
 62
     7
  6
Continuous
370
    25
390
F
  0
LAYER
  5
76
330
2
100
AcDbSymbolTableRecord
100
AcDbLayerTableRecord
  2
ANTET
 70
     0
 62
     7
  6
Continuous
370
    -3
390
F
  0
LAYER
  5
77
330
2
100
AcDbSymbolTableRecord
100
AcDbLayerTableRecord
  2
OLCU
 70
     0
 62
   150
  6
Continuous
370
    -3
390
F
  0
LAYER
  5
78
330
2
100
AcDbSymbolTableRecord
100
AcDbLayerTableRecord
  2
METIN
 70
     0
 62
    96
  6
Continuous
370
    -3
390
F
  0
LAYER
  5
79
330
2
100
AcDbSymbolTableRecord
100
AcDbLayerTableRecord
  2
BALON
 70
     0
 62
     5
  6
Continuous
370
    -3
390
F
  0
LAYER
  5
7A
330
2
100
AcDbSymbolTableRecord
100
AcDbLayerTableRecord
  2
VURGU
 70
     0
 62
     7
  6
Continuous
370
    -3
390
F
  0
LAYER
  5
7B
330
2
100
AcDbSymbolTableRecord
100
AcDbLayerTableRecord
  2
SILIK
 70
     0
 62
     7
  6
Continuous
370
    -3
390
F
  0
LAYER
  5
7C
330
2
100
AcDbSymbolTableRecord
100
AcDbLayerTableRecord
  2
MODEL
 70
     0
 62
     7
  6
Continuous
370
    -3
390
F
  0
LAYER
  5
7D
330
2
100
AcDbSymbolTableRecord
100
AcDbLayerTableRecord
  2
DETAYLANDıRMA
 70
     0
 62
   190
  6
Continuous
370
    -3
390
F
  0
LAYER
  5
7E
330
2
100
AcDbSymbolTableRecord
100
AcDbLayerTableRecord
  2
TOLERANS
 70
     0
 62
   230
  6
Continuous
370
    -3
390
F
  0
LAYER
  5
7F
330
2
100
AcDbSymbolTableRecord
100
AcDbLayerTableRecord
  2
MERKEZ_CIZGILERI
 70
     0
 62
    30
  6
Continuous
370
    -3
390
F
  0
LAYER
  5
80
330
2
100
AcDbSymbolTableRecord
100
AcDbLayerTableRecord
  2
KESIT-DETAY_CIZGILERI
 70
     0
 62
     7
  6
Continuous
370
    -3
390
F
  0
LAYER
  5
81
330
2
100
AcDbSymbolTableRecord
100
AcDbLayerTableRecord
  2
\U+041E\U+0421\U+0415\U+0412\U+042B\U+0415
 70
     0
 62
     7
  6
Continuous
370
    -3
390
F
  0
LAYER
  5
82
330
2
100
AcDbSymbolTableRecord
100
AcDbLayerTableRecord
  2
\U+0412\U+041E\U+0414\U+042F\U+041D\U+042B\U+0415_\U+0417\U+041D\U+0410\U+041A\U+0418
 70
     0
 62
    11
  6
Continuous
370
    -3
390
F
  0
ENDTAB
  0
TABLE
  2
STYLE
  5
3
330
0
100
AcDbSymbolTable
 70
     1
  0
STYLE
  5
11
330
3
100
AcDbSymbolTableRecord
100
AcDbTextStyleTableRecord
  2
Standard
 70
     0
 40
0.0
 41
1.0
 50
0.0
 71
     0
 42
3.5
  3
txt
  4

  0
ENDTAB
  0
TABLE
  2
VIEW
  5
6
330
0
100
AcDbSymbolTable
 70
     0
  0
ENDTAB
  0
TABLE
  2
UCS
  5
7
330
0
100
AcDbSymbolTable
 70
     0
  0
ENDTAB
  0
TABLE
  2
APPID
  5
9
330
0
100
AcDbSymbolTable
 70
     1
  0
APPID
  5
12
330
9
100
AcDbSymbolTableRecord
100
AcDbRegAppTableRecord
  2
ACAD
 70
     0
  0
ENDTAB
  0
TABLE
  2
DIMSTYLE
  5
A
330
0
100
AcDbSymbolTable
 70
     1
100
AcDbDimStyleTable
  0
DIMSTYLE
105
27
330
A
100
AcDbSymbolTableRecord
100
AcDbDimStyleTableRecord
  2
ISO-25
 70
     0
 41
2.5
 42
0.625
 43
3.75
 44
1.25
 73
     0
 74
     0
 77
     1
 78
     8
140
2.5
141
2.5
143
0.0393700787
147
0.625
171
     3
172
     1
178
     0
271
     2
272
     2
274
     3
278
    44
283
     0
284
     8
340
11
  0
ENDTAB
  0
TABLE
  2
BLOCK_RECORD
  5
1
330
0
100
AcDbSymbolTable
 70
     2
  0
BLOCK_RECORD
  5
1F
330
1
100
AcDbSymbolTableRecord
100
AcDbBlockTableRecord
  2
*Model_Space
340
22
  0
BLOCK_RECORD
  5
1B
330
1
100
AcDbSymbolTableRecord
100
AcDbBlockTableRecord
  2
*Paper_Space
340
1E
  0
BLOCK_RECORD
  5
23
330
1
100
AcDbSymbolTableRecord
100
AcDbBlockTableRecord
  2
*Paper_Space0
340
26
  0
BLOCK_RECORD
  5
8E
330
1
100
AcDbSymbolTableRecord
100
AcDbBlockTableRecord
  2
SW_CENTERMARKSYMBOL_0
340
0
102
{BLKREFS
331
99
102
}
  0
ENDTAB
  0
ENDSEC
  0
SECTION
  2
BLOCKS
  0
BLOCK
  5
20
330
1F
100
AcDbEntity
  8
0
100
AcDbBlockBegin
  2
*Model_Space
 70
     0
 10
0.0
 20
0.0
 30
0.0
  3
*Model_Space
  1

  0
ENDBLK
  5
21
330
1F
100
AcDbEntity
  8
0
100
AcDbBlockEnd
  0
BLOCK
  5
1C
330
1B
100
AcDbEntity
 67
     1
  8
0
100
AcDbBlockBegin
  2
*Paper_Space
 70
     0
 10
0.0
 20
0.0
 30
0.0
  3
*Paper_Space
  1

  0
ENDBLK
  5
1D
330
1B
100
AcDbEntity
 67
     1
  8
0
100
AcDbBlockEnd
  0
BLOCK
  5
24
330
23
100
AcDbEntity
  8
0
100
AcDbBlockBegin
  2
*Paper_Space0
 70
     0
 10
0.0
 20
0.0
 30
0.0
  3
*Paper_Space0
  1

  0
ENDBLK
  5
25
330
23
100
AcDbEntity
  8
0
100
AcDbBlockEnd
  0
BLOCK
  5
8F
330
8E
100
AcDbEntity
  8
0
100
AcDbBlockBegin
  2
SW_CENTERMARKSYMBOL_0
 70
     0
 10
0.0
 20
0.0
 30
0.0
  3
SW_CENTERMARKSYMBOL_0
  1

  0
LINE
  5
91
330
8E
100
AcDbEntity
  8
FORMAT
 62
     0
100
AcDbLine
 10
0.0
 20
0.0
 30
0.0
 11
0.0
 21
2.5
 31
0.0
  0
LINE
  5
92
330
8E
100
AcDbEntity
  8
FORMAT
 62
     0
100
AcDbLine
 10
0.0
 20
0.0
 30
0.0
 11
-2.5
 21
0.0
 31
0.0
  0
LINE
  5
93
330
8E
100
AcDbEntity
  8
FORMAT
 62
     0
100
AcDbLine
 10
0.0
 20
0.0
 30
0.0
 11
0.0
 21
-2.5
 31
0.0
  0
LINE
  5
94
330
8E
100
AcDbEntity
  8
FORMAT
 62
     0
100
AcDbLine
 10
0.0
 20
0.0
 30
0.0
 11
2.5
 21
0.0
 31
0.0
  0
LINE
  5
95
330
8E
100
AcDbEntity
  8
FORMAT
 62
     0
100
AcDbLine
 10
0.0
 20
5.0
 30
0.0
 11
0.0
 21
18.5
 31
0.0
  0
LINE
  5
96
330
8E
100
AcDbEntity
  8
FORMAT
 62
     0
100
AcDbLine
 10
-5.0
 20
0.0
 30
0.0
 11
-18.5
 21
0.0
 31
0.0
  0
LINE
  5
97
330
8E
100
AcDbEntity
  8
FORMAT
 62
     0
100
AcDbLine
 10
0.0
 20
-5.0
 30
0.0
 11
0.0
 21
-18.5
 31
0.0
  0
LINE
  5
98
330
8E
100
AcDbEntity
  8
FORMAT
 62
     0
100
AcDbLine
 10
5.0
 20
0.0
 30
0.0
 11
18.5
 21
0.0
 31
0.0
  0
ENDBLK
  5
90
330
8E
100
AcDbEntity
  8
0
100
AcDbBlockEnd
  0
ENDSEC
  0
SECTION
  2
ENTITIES
  0
CIRCLE
  5
83
330
1F
100
AcDbEntity
  8
0
  6
Continuous
 62
     7
370
    25
100
AcDbCircle
 10
139.8323425481
 20
108.7440552885
 30
0.0
 40
13.00000000000001
  0
CIRCLE
  5
84
330
1F
100
AcDbEntity
  8
0
  6
Continuous
 62
     7
370
    25
100
AcDbCircle
 10
139.8323425481
 20
108.7440552885
 30
0.0
 40
16.00000000000003
  0
CIRCLE
  5
85
330
1F
100
AcDbEntity
  8
0
  6
Continuous
 62
     7
370
    25
100
AcDbCircle
 10
139.8323425481
 20
108.7440552885
 30
0.0
 40
11.00000000000003
  0
CIRCLE
  5
86
330
1F
100
AcDbEntity
  8
0
  6
Continuous
 62
     7
370
    25
100
AcDbCircle
 10
139.8323425481
 20
108.7440552885
 30
0.0
 40
18.00000000000001
  0
CIRCLE
  5
87
330
1F
100
AcDbEntity
  8
0
  6
Continuous
 62
     7
370
    25
100
AcDbCircle
 10
139.8323425481
 20
108.7440552885
 30
0.0
 40
18.50000000000003
  0
LINE
  5
88
330
1F
100
AcDbEntity
  8
0
  6
Continuous
 62
     7
370
    25
100
AcDbLine
 10
119.3323425481
 20
120.5797358068
 30
0.0
 11
119.3323425481
 21
96.9083747701
 31
0.0
  0
LINE
  5
89
330
1F
100
AcDbEntity
  8
0
  6
Continuous
 62
     7
370
    25
100
AcDbLine
 10
139.8323425481
 20
132.4154163252
 30
0.0
 11
119.3323425481
 21
120.5797358068
 31
0.0
  0
LINE
  5
8A
330
1F
100
AcDbEntity
  8
0
  6
Continuous
 62
     7
370
    25
100
AcDbLine
 10
160.3323425481
 20
96.9083747701
 30
0.0
 11
160.3323425481
 21
120.5797358068
 31
0.0
  0
LINE
  5
8B
330
1F
100
AcDbEntity
  8
0
  6
Continuous
 62
     7
370
    25
100
AcDbLine
 10
160.3323425481
 20
120.5797358068
 30
0.0
 11
139.8323425481
 21
132.4154163252
 31
0.0
  0
LINE
  5
8C
330
1F
100
AcDbEntity
  8
0
  6
Continuous
 62
     7
370
    25
100
AcDbLine
 10
139.8323425481
 20
85.0726942517
 30
0.0
 11
160.3323425481
 21
96.9083747701
 31
0.0
  0
LINE
  5
8D
330
1F
100
AcDbEntity
  8
0
  6
Continuous
 62
     7
370
    25
100
AcDbLine
 10
119.3323425481
 20
96.9083747701
 30
0.0
 11
139.8323425481
 21
85.0726942517
 31
0.0
  0
INSERT
  5
99
330
1F
100
AcDbEntity
  8
FORMAT
 62
     7
100
AcDbBlockReference
  2
SW_CENTERMARKSYMBOL_0
 10
139.8323425481
 20
108.7440552885
 30
0.0
  0
LINE
  5
9A
330
1F
100
AcDbEntity
  8
0
  6
Continuous
 62
     7
370
    25
100
AcDbLine
 10
158.3323425481
 20
163.6870325164
 30
0.0
 11
158.3323425481
 21
183.1870325164
 31
0.0
  0
LINE
  5
9B
330
1F
100
AcDbEntity
  8
0
  6
Continuous
 62
     7
370
    25
100
AcDbLine
 10
121.3323425481
 20
183.1870325164
 30
0.0
 11
121.3323425481
 21
163.6870325164
 31
0.0
  0
ARC
  5
9C
330
1F
100
AcDbEntity
  8
0
  6
Continuous
 62
     7
370
    25
100
AcDbCircle
 10
157.8323425481
 20
183.1870325164
 30
0.0
 40
0.5000000000000284
100
AcDbArc
 50
0.0
 51
90.0
  0
ARC
  5
9D
330
1F
100
AcDbEntity
  8
0
  6
Continuous
 62
     7
370
    25
100
AcDbCircle
 10
121.8323425481
 20
183.1870325164
 30
0.0
 40
0.5000000000000284
100
AcDbArc
 50
90.0
 51
180.0
  0
LINE
  5
9E
330
1F
100
AcDbEntity
  8
0
  6
Continuous
 62
     7
370
    25
100
AcDbLine
 10
123.2073425481
 20
141.1870325164
 30
0.0
 11
124.9393933556
 21
140.1870325164
 31
0.0
  0
LINE
  5
9F
330
1F
100
AcDbEntity
  8
0
  6
Continuous
 62
     7
370
    25
100
AcDbLine
 10
154.7252917405
 20
140.1870325164
 30
0.0
 11
156.4573425481
 21
141.1870325164
 31
0.0
  0
LINE
  5
A0
330
1F
100
AcDbEntity
  8
0
  6
Continuous
 62
     7
370
    25
100
AcDbLine
 10
156.4573425481
 20
141.1870325164
 30
0.0
 11
154.7252917405
 21
142.1870325164
 31
0.0
  0
LINE
  5
A1
330
1F
100
AcDbEntity
  8
0
  6
Continuous
 62
     7
370
    25
100
AcDbLine
 10
124.9393933556
 20
142.1870325164
 30
0.0
 11
123.2073425481
 21
141.1870325164
 31
0.0
  0
LINE
  5
A2
330
1F
100
AcDbEntity
  8
0
  6
Continuous
 62
     7
370
    25
100
AcDbLine
 10
123.2073425481
 20
143.1870325164
 30
0.0
 11
124.9393933556
 21
142.1870325164
 31
0.0
  0
LINE
  5
A3
330
1F
100
AcDbEntity
  8
0
  6
Continuous
 62
     7
370
    25
100
AcDbLine
 10
154.7252917405
 20
142.1870325164
 30
0.0
 11
156.4573425481
 21
143.1870325164
 31
0.0
  0
LINE
  5
A4
330
1F
100
AcDbEntity
  8
0
  6
Continuous
 62
     7
370
    25
100
AcDbLine
 10
156.4573425481
 20
143.1870325164
 30
0.0
 11
154.7252917405
 21
144.1870325164
 31
0.0
  0
LINE
  5
A5
330
1F
100
AcDbEntity
  8
0
  6
Continuous
 62
     7
370
    25
100
AcDbLine
 10
124.9393933556
 20
144.1870325164
 30
0.0
 11
123.2073425481
 21
143.1870325164
 31
0.0
  0
LINE
  5
A6
330
1F
100
AcDbEntity
  8
0
  6
Continuous
 62
     7
370
    25
100
AcDbLine
 10
123.2073425481
 20
145.1870325164
 30
0.0
 11
124.9393933556
 21
144.1870325164
 31
0.0
  0
LINE
  5
A7
330
1F
100
AcDbEntity
  8
0
  6
Continuous
 62
     7
370
    25
100
AcDbLine
 10
154.7252917405
 20
144.1870325164
 30
0.0
 11
156.4573425481
 21
145.1870325164
 31
0.0
  0
LINE
  5
A8
330
1F
100
AcDbEntity
  8
0
  6
Continuous
 62
     7
370
    25
100
AcDbLine
 10
156.4573425481
 20
145.1870325164
 30
0.0
 11
154.7252917405
 21
146.1870325164
 31
0.0
  0
LINE
  5
A9
330
1F
100
AcDbEntity
  8
0
  6
Continuous
 62
     7
370
    25
100
AcDbLine
 10
124.9393933556
 20
146.1870325164
 30
0.0
 11
123.2073425481
 21
145.1870325164
 31
0.0
  0
LINE
  5
AA
330
1F
100
AcDbEntity
  8
0
  6
Continuous
 62
     7
370
    25
100
AcDbLine
 10
123.2073425481
 20
147.1870325164
 30
0.0
 11
124.9393933556
 21
146.1870325164
 31
0.0
  0
LINE
  5
AB
330
1F
100
AcDbEntity
  8
0
  6
Continuous
 62
     7
370
    25
100
AcDbLine
 10
154.7252917405
 20
146.1870325164
 30
0.0
 11
156.4573425481
 21
147.1870325164
 31
0.0
  0
LINE
  5
AC
330
1F
100
AcDbEntity
  8
0
  6
Continuous
 62
     7
370
    25
100
AcDbLine
 10
156.4573425481
 20
147.1870325164
 30
0.0
 11
156.4573425481
 21
156.1870325164
 31
0.0
  0
LINE
  5
AD
330
1F
100
AcDbEntity
  8
0
  6
Continuous
 62
     7
370
    25
100
AcDbLine
 10
123.2073425481
 20
156.1870325164
 30
0.0
 11
123.2073425481
 21
147.1870325164
 31
0.0
  0
LINE
  5
AE
330
1F
100
AcDbEntity
  8
0
  6
Continuous
 62
     7
370
    25
100
AcDbLine
 10
155.8323425481
 20
183.6870325164
 30
0.0
 11
155.8323425481
 21
226.1870325164
 31
0.0
  0
LINE
  5
AF
330
1F
100
AcDbEntity
  8
0
  6
Continuous
 62
     7
370
    25
100
AcDbLine
 10
123.8323425481
 20
226.1870325164
 30
0.0
 11
123.8323425481
 21
183.6870325164
 31
0.0
  0
LINE
  5
B0
330
1F
100
AcDbEntity
  8
0
  6
Continuous
 62
     7
370
    25
100
AcDbLine
 10
139.8323425481
 20
163.6870325164
 30
0.0
 11
139.8323425481
 21
156.1870325164
 31
0.0
  0
LINE
  5
B1
330
1F
100
AcDbEntity
  8
0
  6
Continuous
 62
     7
370
    25
100
AcDbLine
 10
139.8323425481
 20
163.6870325164
 30
0.0
 11
160.3323425481
 21
163.6870325164
 31
0.0
  0
LINE
  5
B2
330
1F
100
AcDbEntity
  8
0
  6
Continuous
 62
     7
370
    25
100
AcDbLine
 10
160.3323425481
 20
163.6870325164
 30
0.0
 11
160.3323425481
 21
156.1870325164
 31
0.0
  0
LINE
  5
B3
330
1F
100
AcDbEntity
  8
0
  6
Continuous
 62
     7
370
    25
100
AcDbLine
 10
139.8323425481
 20
156.1870325164
 30
0.0
 11
160.3323425481
 21
156.1870325164
 31
0.0
  0
LINE
  5
B4
330
1F
100
AcDbEntity
  8
0
  6
Continuous
 62
     7
370
    25
100
AcDbLine
 10
119.3323425481
 20
163.6870325164
 30
0.0
 11
119.3323425481
 21
156.1870325164
 31
0.0
  0
LINE
  5
B5
330
1F
100
AcDbEntity
  8
0
  6
Continuous
 62
     7
370
    25
100
AcDbLine
 10
119.3323425481
 20
163.6870325164
 30
0.0
 11
139.8323425481
 21
163.6870325164
 31
0.0
  0
LINE
  5
B6
330
1F
100
AcDbEntity
  8
0
  6
Continuous
 62
     7
370
    25
100
AcDbLine
 10
119.3323425481
 20
156.1870325164
 30
0.0
 11
139.8323425481
 21
156.1870325164
 31
0.0
  0
LINE
  5
B7
330
1F
100
AcDbEntity
  8
0
  6
Continuous
 62
     7
370
    25
100
AcDbLine
 10
157.8323425459
 20
183.6870325164
 30
0.0
 11
121.8323425481
 21
183.6870325164
 31
0.0
  0
LINE
  5
B8
330
1F
100
AcDbEntity
  8
0
  6
Continuous
 62
     7
370
    25
100
AcDbLine
 10
156.4573425481
 20
141.1870325164
 30
0.0
 11
123.2073425481
 21
141.1870325164
 31
0.0
  0
LINE
  5
B9
330
1F
100
AcDbEntity
  8
0
  6
Continuous
 62
     7
370
    25
100
AcDbLine
 10
154.7252917405
 20
140.1870325164
 30
0.0
 11
124.9393933556
 21
140.1870325164
 31
0.0
  0
LINE
  5
BA
330
1F
100
AcDbEntity
  8
0
  6
Continuous
 62
     7
370
    25
100
AcDbLine
 10
154.7252917405
 20
142.1870325164
 30
0.0
 11
124.9393933556
 21
142.1870325164
 31
0.0
  0
LINE
  5
BB
330
1F
100
AcDbEntity
  8
0
  6
Continuous
 62
     7
370
    25
100
AcDbLine
 10
156.4573425481
 20
143.1870325164
 30
0.0
 11
123.2073425481
 21
143.1870325164
 31
0.0
  0
LINE
  5
BC
330
1F
100
AcDbEntity
  8
0
  6
Continuous
 62
     7
370
    25
100
AcDbLine
 10
154.7252917405
 20
144.1870325164
 30
0.0
 11
124.9393933556
 21
144.1870325164
 31
0.0
  0
LINE
  5
BD
330
1F
100
AcDbEntity
  8
0
  6
Continuous
 62
     7
370
    25
100
AcDbLine
 10
156.4573425481
 20
145.1870325164
 30
0.0
 11
123.2073425481
 21
145.1870325164
 31
0.0
  0
LINE
  5
BE
330
1F
100
AcDbEntity
  8
0
  6
Continuous
 62
     7
370
    25
100
AcDbLine
 10
154.7252917405
 20
146.1870325164
 30
0.0
 11
124.9393933556
 21
146.1870325164
 31
0.0
  0
LINE
  5
BF
330
1F
100
AcDbEntity
  8
0
  6
Continuous
 62
     7
370
    25
100
AcDbLine
 10
156.4573425481
 20
147.1870325164
 30
0.0
 11
123.2073425481
 21
147.1870325164
 31
0.0
  0
LINE
  5
C0
330
1F
100
AcDbEntity
  8
0
  6
Continuous
 62
     7
370
    25
100
AcDbLine
 10
155.8323425481
 20
226.1870325164
 30
0.0
 11
123.8323425481
 21
226.1870325164
 31
0.0
  0
LINE
  5
C1
330
1F
100
AcDbEntity
  8
0
  6
Continuous
 62
     1
370
    25
100
AcDbLine
 10
158.3323425481
 20
183.1870325164
 30
0.0
 11
121.3323425481
 21
183.1870325164
 31
0.0
  0
LINE
  5
C2
330
1F
100
AcDbEntity
  8
0
  6
Continuous
 62
     7
370
    25
100
AcDbLine
 10
216.619244041
 20
90.2440552885
 30
0.0
 11
236.119244041
 21
90.2440552885
 31
0.0
  0
LINE
  5
C3
330
1F
100
AcDbEntity
  8
0
  6
Continuous
 62
     7
370
    25
100
AcDbLine
 10
236.119244041
 20
127.2440552885
 30
0.0
 11
216.619244041
 21
127.2440552885
 31
0.0
  0
ARC
  5
C4
330
1F
100
AcDbEntity
  8
0
  6
Continuous
 62
     7
370
    25
100
AcDbCircle
 10
236.119244041
 20
90.7440552885
 30
0.0
 40
0.5
100
AcDbArc
 50
270.0
 51
0.0
  0
ARC
  5
C5
330
1F
100
AcDbEntity
  8
0
  6
Continuous
 62
     7
370
    25
100
AcDbCircle
 10
236.119244041
 20
126.7440552885
 30
0.0
 40
0.5
100
AcDbArc
 50
0.0
 51
90.0
  0
LINE
  5
C6
330
1F
100
AcDbEntity
  8
0
  6
Continuous
 62
     7
370
    25
100
AcDbLine
 10
194.119244041
 20
125.3690552885
 30
0.0
 11
193.119244041
 21
123.6370044809
 31
0.0
  0
LINE
  5
C7
330
1F
100
AcDbEntity
  8
0
  6
Continuous
 62
     7
370
    25
100
AcDbLine
 10
193.119244041
 20
93.851106096
 30
0.0
 11
194.119244041
 21
92.1190552885
 31
0.0
  0
LINE
  5
C8
330
1F
100
AcDbEntity
  8
0
  6
Continuous
 62
     7
370
    25
100
AcDbLine
 10
194.119244041
 20
92.1190552885
 30
0.0
 11
195.119244041
 21
93.851106096
 31
0.0
  0
LINE
  5
C9
330
1F
100
AcDbEntity
  8
0
  6
Continuous
 62
     7
370
    25
100
AcDbLine
 10
195.119244041
 20
123.6370044809
 30
0.0
 11
194.119244041
 21
125.3690552885
 31
0.0
  0
LINE
  5
CA
330
1F
100
AcDbEntity
  8
0
  6
Continuous
 62
     7
370
    25
100
AcDbLine
 10
196.119244041
 20
125.3690552885
 30
0.0
 11
195.119244041
 21
123.6370044809
 31
0.0
  0
LINE
  5
CB
330
1F
100
AcDbEntity
  8
0
  6
Continuous
 62
     7
370
    25
100
AcDbLine
 10
195.119244041
 20
93.851106096
 30
0.0
 11
196.119244041
 21
92.1190552885
 31
0.0
  0
LINE
  5
CC
330
1F
100
AcDbEntity
  8
0
  6
Continuous
 62
     7
370
    25
100
AcDbLine
 10
196.119244041
 20
92.1190552885
 30
0.0
 11
197.119244041
 21
93.851106096
 31
0.0
  0
LINE
  5
CD
330
1F
100
AcDbEntity
  8
0
  6
Continuous
 62
     7
370
    25
100
AcDbLine
 10
197.119244041
 20
123.6370044809
 30
0.0
 11
196.119244041
 21
125.3690552885
 31
0.0
  0
LINE
  5
CE
330
1F
100
AcDbEntity
  8
0
  6
Continuous
 62
     7
370
    25
100
AcDbLine
 10
198.119244041
 20
125.3690552885
 30
0.0
 11
197.119244041
 21
123.6370044809
 31
0.0
  0
LINE
  5
CF
330
1F
100
AcDbEntity
  8
0
  6
Continuous
 62
     7
370
    25
100
AcDbLine
 10
197.119244041
 20
93.851106096
 30
0.0
 11
198.119244041
 21
92.1190552885
 31
0.0
  0
LINE
  5
D0
330
1F
100
AcDbEntity
  8
0
  6
Continuous
 62
     7
370
    25
100
AcDbLine
 10
198.119244041
 20
92.1190552885
 30
0.0
 11
199.119244041
 21
93.851106096
 31
0.0
  0
LINE
  5
D1
330
1F
100
AcDbEntity
  8
0
  6
Continuous
 62
     7
370
    25
100
AcDbLine
 10
199.119244041
 20
123.6370044809
 30
0.0
 11
198.119244041
 21
125.3690552885
 31
0.0
  0
LINE
  5
D2
330
1F
100
AcDbEntity
  8
0
  6
Continuous
 62
     7
370
    25
100
AcDbLine
 10
200.119244041
 20
125.3690552885
 30
0.0
 11
199.119244041
 21
123.6370044809
 31
0.0
  0
LINE
  5
D3
330
1F
100
AcDbEntity
  8
0
  6
Continuous
 62
     7
370
    25
100
AcDbLine
 10
199.119244041
 20
93.851106096
 30
0.0
 11
200.119244041
 21
92.1190552885
 31
0.0
  0
LINE
  5
D4
330
1F
100
AcDbEntity
  8
0
  6
Continuous
 62
     7
370
    25
100
AcDbLine
 10
200.119244041
 20
92.1190552885
 30
0.0
 11
209.119244041
 21
92.1190552885
 31
0.0
  0
LINE
  5
D5
330
1F
100
AcDbEntity
  8
0
  6
Continuous
 62
     7
370
    25
100
AcDbLine
 10
209.119244041
 20
125.3690552885
 30
0.0
 11
200.119244041
 21
125.3690552885
 31
0.0
  0
LINE
  5
D6
330
1F
100
AcDbEntity
  8
0
  6
Continuous
 62
     7
370
    25
100
AcDbLine
 10
236.619244041
 20
92.7440552885
 30
0.0
 11
279.119244041
 21
92.7440552885
 31
0.0
  0
LINE
  5
D7
330
1F
100
AcDbEntity
  8
0
  6
Continuous
 62
     7
370
    25
100
AcDbLine
 10
279.119244041
 20
124.7440552885
 30
0.0
 11
236.619244041
 21
124.7440552885
 31
0.0
  0
LINE
  5
D8
330
1F
100
AcDbEntity
  8
0
  6
Continuous
 62
     7
370
    25
100
AcDbLine
 10
216.619244041
 20
120.5797358068
 30
0.0
 11
209.119244041
 21
120.5797358068
 31
0.0
  0
LINE
  5
D9
330
1F
100
AcDbEntity
  8
0
  6
Continuous
 62
     7
370
    25
100
AcDbLine
 10
216.619244041
 20
120.5797358068
 30
0.0
 11
216.619244041
 21
96.9083747701
 31
0.0
  0
LINE
  5
DA
330
1F
100
AcDbEntity
  8
0
  6
Continuous
 62
     7
370
    25
100
AcDbLine
 10
216.619244041
 20
96.9083747701
 30
0.0
 11
209.119244041
 21
96.9083747701
 31
0.0
  0
LINE
  5
DB
330
1F
100
AcDbEntity
  8
0
  6
Continuous
 62
     7
370
    25
100
AcDbLine
 10
209.119244041
 20
120.5797358068
 30
0.0
 11
209.119244041
 21
96.9083747701
 31
0.0
  0
LINE
  5
DC
330
1F
100
AcDbEntity
  8
0
  6
Continuous
 62
     7
370
    25
100
AcDbLine
 10
216.619244041
 20
96.9083747701
 30
0.0
 11
216.619244041
 21
85.0726942517
 31
0.0
  0
LINE
  5
DD
330
1F
100
AcDbEntity
  8
0
  6
Continuous
 62
     7
370
    25
100
AcDbLine
 10
216.619244041
 20
85.0726942517
 30
0.0
 11
209.119244041
 21
85.0726942517
 31
0.0
  0
LINE
  5
DE
330
1F
100
AcDbEntity
  8
0
  6
Continuous
 62
     7
370
    25
100
AcDbLine
 10
209.119244041
 20
96.9083747701
 30
0.0
 11
209.119244041
 21
85.0726942517
 31
0.0
  0
LINE
  5
DF
330
1F
100
AcDbEntity
  8
0
  6
Continuous
 62
     7
370
    25
100
AcDbLine
 10
216.619244041
 20
132.4154163252
 30
0.0
 11
209.119244041
 21
132.4154163252
 31
0.0
  0
LINE
  5
E0
330
1F
100
AcDbEntity
  8
0
  6
Continuous
 62
     7
370
    25
100
AcDbLine
 10
216.619244041
 20
132.4154163252
 30
0.0
 11
216.619244041
 21
120.5797358068
 31
0.0
  0
LINE
  5
E1
330
1F
100
AcDbEntity
  8
0
  6
Continuous
 62
     7
370
    25
100
AcDbLine
 10
209.119244041
 20
132.4154163252
 30
0.0
 11
209.119244041
 21
120.5797358068
 31
0.0
  0
LINE
  5
E2
330
1F
100
AcDbEntity
  8
0
  6
Continuous
 62
     7
370
    25
100
AcDbLine
 10
236.619244041
 20
108.7440552885
 30
0.0
 11
236.619244041
 21
126.7440552885
 31
0.0
  0
LINE
  5
E3
330
1F
100
AcDbEntity
  8
0
  6
Continuous
 62
     7
370
    25
100
AcDbLine
 10
236.619244041
 20
90.7440552885
 30
0.0
 11
236.619244041
 21
108.7440552885
 31
0.0
  0
LINE
  5
E4
330
1F
100
AcDbEntity
  8
0
  6
Continuous
 62
     7
370
    25
100
AcDbLine
 10
194.119244041
 20
108.7440552885
 30
0.0
 11
194.119244041
 21
125.3690552885
 31
0.0
  0
LINE
  5
E5
330
1F
100
AcDbEntity
  8
0
  6
Continuous
 62
     7
370
    25
100
AcDbLine
 10
194.119244041
 20
92.1190552885
 30
0.0
 11
194.119244041
 21
108.7440552885
 31
0.0
  0
LINE
  5
E6
330
1F
100
AcDbEntity
  8
0
  6
Continuous
 62
     7
370
    25
100
AcDbLine
 10
193.119244041
 20
108.7440552885
 30
0.0
 11
193.119244041
 21
123.6370044809
 31
0.0
  0
LINE
  5
E7
330
1F
100
AcDbEntity
  8
0
  6
Continuous
 62
     7
370
    25
100
AcDbLine
 10
193.119244041
 20
93.851106096
 30
0.0
 11
193.119244041
 21
108.7440552885
 31
0.0
  0
LINE
  5
E8
330
1F
100
AcDbEntity
  8
0
  6
Continuous
 62
     7
370
    25
100
AcDbLine
 10
195.119244041
 20
108.7440552885
 30
0.0
 11
195.119244041
 21
123.6370044809
 31
0.0
  0
LINE
  5
E9
330
1F
100
AcDbEntity
  8
0
  6
Continuous
 62
     7
370
    25
100
AcDbLine
 10
195.119244041
 20
93.851106096
 30
0.0
 11
195.119244041
 21
108.7440552885
 31
0.0
  0
LINE
  5
EA
330
1F
100
AcDbEntity
  8
0
  6
Continuous
 62
     7
370
    25
100
AcDbLine
 10
196.119244041
 20
108.7440552885
 30
0.0
 11
196.119244041
 21
125.3690552885
 31
0.0
  0
LINE
  5
EB
330
1F
100
AcDbEntity
  8
0
  6
Continuous
 62
     7
370
    25
100
AcDbLine
 10
196.119244041
 20
92.1190552885
 30
0.0
 11
196.119244041
 21
108.7440552885
 31
0.0
  0
LINE
  5
EC
330
1F
100
AcDbEntity
  8
0
  6
Continuous
 62
     7
370
    25
100
AcDbLine
 10
197.119244041
 20
108.7440552885
 30
0.0
 11
197.119244041
 21
123.6370044809
 31
0.0
  0
LINE
  5
ED
330
1F
100
AcDbEntity
  8
0
  6
Continuous
 62
     7
370
    25
100
AcDbLine
 10
197.119244041
 20
93.851106096
 30
0.0
 11
197.119244041
 21
108.7440552885
 31
0.0
  0
LINE
  5
EE
330
1F
100
AcDbEntity
  8
0
  6
Continuous
 62
     7
370
    25
100
AcDbLine
 10
198.119244041
 20
108.7440552885
 30
0.0
 11
198.119244041
 21
125.3690552885
 31
0.0
  0
LINE
  5
EF
330
1F
100
AcDbEntity
  8
0
  6
Continuous
 62
     7
370
    25
100
AcDbLine
 10
198.119244041
 20
92.1190552885
 30
0.0
 11
198.119244041
 21
108.7440552885
 31
0.0
  0
LINE
  5
F0
330
1F
100
AcDbEntity
  8
0
  6
Continuous
 62
     7
370
    25
100
AcDbLine
 10
199.119244041
 20
108.7440552885
 30
0.0
 11
199.119244041
 21
123.6370044809
 31
0.0
  0
LINE
  5
F1
330
1F
100
AcDbEntity
  8
0
  6
Continuous
 62
     7
370
    25
100
AcDbLine
 10
199.119244041
 20
93.851106096
 30
0.0
 11
199.119244041
 21
108.7440552885
 31
0.0
  0
LINE
  5
F2
330
1F
100
AcDbEntity
  8
0
  6
Continuous
 62
     7
370
    25
100
AcDbLine
 10
200.119244041
 20
108.7440552885
 30
0.0
 11
200.119244041
 21
125.3690552885
 31
0.0
  0
LINE
  5
F3
330
1F
100
AcDbEntity
  8
0
  6
Continuous
 62
     7
370
    25
100
AcDbLine
 10
200.119244041
 20
92.1190552885
 30
0.0
 11
200.119244041
 21
108.7440552885
 31
0.0
  0
LINE
  5
F4
330
1F
100
AcDbEntity
  8
0
  6
Continuous
 62
     7
370
    25
100
AcDbLine
 10
279.119244041
 20
108.7440552885
 30
0.0
 11
279.119244041
 21
124.7440552885
 31
0.0
  0
LINE
  5
F5
330
1F
100
AcDbEntity
  8
0
  6
Continuous
 62
     7
370
    25
100
AcDbLine
 10
279.119244041
 20
92.7440552885
 30
0.0
 11
279.119244041
 21
108.7440552885
 31
0.0
  0
LINE
  5
F6
330
1F
100
AcDbEntity
  8
0
  6
Continuous
 62
     1
370
    25
100
AcDbLine
 10
236.119244041
 20
108.7440552885
 30
0.0
 11
236.119244041
 21
127.2440552885
 31
0.0
  0
LINE
  5
F7
330
1F
100
AcDbEntity
  8
0
  6
Continuous
 62
     1
370
    25
100
AcDbLine
 10
236.119244041
 20
90.2440552885
 30
0.0
 11
236.119244041
 21
108.7440552885
 31
0.0
  0
LINE
  5
F8
330
1F
100
AcDbEntity
  8
0
  6
Continuous
 62
     7
370
    25
100
AcDbLine
 10
63.1317308965
 20
127.2440552885
 30
0.0
 11
43.6317308965
 21
127.2440552885
 31
0.0
  0
LINE
  5
F9
330
1F
100
AcDbEntity
  8
0
  6
Continuous
 62
     7
370
    25
100
AcDbLine
 10
43.6317308965
 20
90.2440552885
 30
0.0
 11
63.1317308965
 21
90.2440552885
 31
0.0
  0
ARC
  5
FA
330
1F
100
AcDbEntity
  8
0
  6
Continuous
 62
     7
370
    25
100
AcDbCircle
 10
43.6317308965
 20
126.7440552885
 30
0.0
 40
0.5
100
AcDbArc
 50
90.0
 51
180.0
  0
ARC
  5
FB
330
1F
100
AcDbEntity
  8
0
  6
Continuous
 62
     7
370
    25
100
AcDbCircle
 10
43.6317308965
 20
90.7440552885
 30
0.0
 40
0.5
100
AcDbArc
 50
180.0
 51
270.0
  0
LINE
  5
FC
330
1F
100
AcDbEntity
  8
0
  6
Continuous
 62
     7
370
    25
100
AcDbLine
 10
85.6317308965
 20
92.1190552885
 30
0.0
 11
86.6317308965
 21
93.851106096
 31
0.0
  0
LINE
  5
FD
330
1F
100
AcDbEntity
  8
0
  6
Continuous
 62
     7
370
    25
100
AcDbLine
 10
86.6317308965
 20
123.6370044809
 30
0.0
 11
85.6317308965
 21
125.3690552885
 31
0.0
  0
LINE
  5
FE
330
1F
100
AcDbEntity
  8
0
  6
Continuous
 62
     7
370
    25
100
AcDbLine
 10
85.6317308965
 20
125.3690552885
 30
0.0
 11
84.6317308965
 21
123.6370044809
 31
0.0
  0
LINE
  5
FF
330
1F
100
AcDbEntity
  8
0
  6
Continuous
 62
     7
370
    25
100
AcDbLine
 10
84.6317308965
 20
93.851106096
 30
0.0
 11
85.6317308965
 21
92.1190552885
 31
0.0
  0
LINE
  5
100
330
1F
100
AcDbEntity
  8
0
  6
Continuous
 62
     7
370
    25
100
AcDbLine
 10
83.6317308965
 20
92.1190552885
 30
0.0
 11
84.6317308965
 21
93.851106096
 31
0.0
  0
LINE
  5
101
330
1F
100
AcDbEntity
  8
0
  6
Continuous
 62
     7
370
    25
100
AcDbLine
 10
84.6317308965
 20
123.6370044809
 30
0.0
 11
83.6317308965
 21
125.3690552885
 31
0.0
  0
LINE
  5
102
330
1F
100
AcDbEntity
  8
0
  6
Continuous
 62
     7
370
    25
100
AcDbLine
 10
83.6317308965
 20
125.3690552885
 30
0.0
 11
82.6317308965
 21
123.6370044809
 31
0.0
  0
LINE
  5
103
330
1F
100
AcDbEntity
  8
0
  6
Continuous
 62
     7
370
    25
100
AcDbLine
 10
82.6317308965
 20
93.851106096
 30
0.0
 11
83.6317308965
 21
92.1190552885
 31
0.0
  0
LINE
  5
104
330
1F
100
AcDbEntity
  8
0
  6
Continuous
 62
     7
370
    25
100
AcDbLine
 10
81.6317308965
 20
92.1190552885
 30
0.0
 11
82.6317308965
 21
93.851106096
 31
0.0
  0
LINE
  5
105
330
1F
100
AcDbEntity
  8
0
  6
Continuous
 62
     7
370
    25
100
AcDbLine
 10
82.6317308965
 20
123.6370044809
 30
0.0
 11
81.6317308965
 21
125.3690552885
 31
0.0
  0
LINE
  5
106
330
1F
100
AcDbEntity
  8
0
  6
Continuous
 62
     7
370
    25
100
AcDbLine
 10
81.6317308965
 20
125.3690552885
 30
0.0
 11
80.6317308965
 21
123.6370044809
 31
0.0
  0
LINE
  5
107
330
1F
100
AcDbEntity
  8
0
  6
Continuous
 62
     7
370
    25
100
AcDbLine
 10
80.6317308965
 20
93.851106096
 30
0.0
 11
81.6317308965
 21
92.1190552885
 31
0.0
  0
LINE
  5
108
330
1F
100
AcDbEntity
  8
0
  6
Continuous
 62
     7
370
    25
100
AcDbLine
 10
79.6317308965
 20
92.1190552885
 30
0.0
 11
80.6317308965
 21
93.851106096
 31
0.0
  0
LINE
  5
109
330
1F
100
AcDbEntity
  8
0
  6
Continuous
 62
     7
370
    25
100
AcDbLine
 10
80.6317308965
 20
123.6370044809
 30
0.0
 11
79.6317308965
 21
125.3690552885
 31
0.0
  0
LINE
  5
10A
330
1F
100
AcDbEntity
  8
0
  6
Continuous
 62
     7
370
    25
100
AcDbLine
 10
79.6317308965
 20
125.3690552885
 30
0.0
 11
70.6317308965
 21
125.3690552885
 31
0.0
  0
LINE
  5
10B
330
1F
100
AcDbEntity
  8
0
  6
Continuous
 62
     7
370
    25
100
AcDbLine
 10
70.6317308965
 20
92.1190552885
 30
0.0
 11
79.6317308965
 21
92.1190552885
 31
0.0
  0
LINE
  5
10C
330
1F
100
AcDbEntity
  8
0
  6
Continuous
 62
     7
370
    25
100
AcDbLine
 10
43.1317308965
 20
124.7440552885
 30
0.0
 11
0.6317308965
 21
124.7440552885
 31
0.0
  0
LINE
  5
10D
330
1F
100
AcDbEntity
  8
0
  6
Continuous
 62
     7
370
    25
100
AcDbLine
 10
0.6317308965
 20
92.7440552885
 30
0.0
 11
43.1317308965
 21
92.7440552885
 31
0.0
  0
LINE
  5
10E
330
1F
100
AcDbEntity
  8
0
  6
Continuous
 62
     7
370
    25
100
AcDbLine
 10
63.1317308965
 20
96.9083747701
 30
0.0
 11
70.6317308965
 21
96.9083747701
 31
0.0
  0
LINE
  5
10F
330
1F
100
AcDbEntity
  8
0
  6
Continuous
 62
     7
370
    25
100
AcDbLine
 10
63.1317308965
 20
96.9083747701
 30
0.0
 11
63.1317308965
 21
120.5797358068
 31
0.0
  0
LINE
  5
110
330
1F
100
AcDbEntity
  8
0
  6
Continuous
 62
     7
370
    25
100
AcDbLine
 10
63.1317308965
 20
120.5797358068
 30
0.0
 11
70.6317308965
 21
120.5797358068
 31
0.0
  0
LINE
  5
111
330
1F
100
AcDbEntity
  8
0
  6
Continuous
 62
     7
370
    25
100
AcDbLine
 10
70.6317308965
 20
96.9083747701
 30
0.0
 11
70.6317308965
 21
120.5797358068
 31
0.0
  0
LINE
  5
112
330
1F
100
AcDbEntity
  8
0
  6
Continuous
 62
     7
370
    25
100
AcDbLine
 10
63.1317308965
 20
120.5797358068
 30
0.0
 11
63.1317308965
 21
132.4154163252
 31
0.0
  0
LINE
  5
113
330
1F
100
AcDbEntity
  8
0
  6
Continuous
 62
     7
370
    25
100
AcDbLine
 10
63.1317308965
 20
132.4154163252
 30
0.0
 11
70.6317308965
 21
132.4154163252
 31
0.0
  0
LINE
  5
114
330
1F
100
AcDbEntity
  8
0
  6
Continuous
 62
     7
370
    25
100
AcDbLine
 10
70.6317308965
 20
120.5797358068
 30
0.0
 11
70.6317308965
 21
132.4154163252
 31
0.0
  0
LINE
  5
115
330
1F
100
AcDbEntity
  8
0
  6
Continuous
 62
     7
370
    25
100
AcDbLine
 10
63.1317308965
 20
85.0726942517
 30
0.0
 11
70.6317308965
 21
85.0726942517
 31
0.0
  0
LINE
  5
116
330
1F
100
AcDbEntity
  8
0
  6
Continuous
 62
     7
370
    25
100
AcDbLine
 10
63.1317308965
 20
85.0726942517
 30
0.0
 11
63.1317308965
 21
96.9083747701
 31
0.0
  0
LINE
  5
117
330
1F
100
AcDbEntity
  8
0
  6
Continuous
 62
     7
370
    25
100
AcDbLine
 10
70.6317308965
 20
85.0726942517
 30
0.0
 11
70.6317308965
 21
96.9083747701
 31
0.0
  0
LINE
  5
118
330
1F
100
AcDbEntity
  8
0
  6
Continuous
 62
     7
370
    25
100
AcDbLine
 10
43.1317308965
 20
126.7440552885
 30
0.0
 11
43.1317308965
 21
90.7440552885
 31
0.0
  0
LINE
  5
119
330
1F
100
AcDbEntity
  8
0
  6
Continuous
 62
     7
370
    25
100
AcDbLine
 10
85.6317308965
 20
125.3690552885
 30
0.0
 11
85.6317308965
 21
92.1190552885
 31
0.0
  0
LINE
  5
11A
330
1F
100
AcDbEntity
  8
0
  6
Continuous
 62
     7
370
    25
100
AcDbLine
 10
86.6317308965
 20
123.6370044809
 30
0.0
 11
86.6317308965
 21
93.851106096
 31
0.0
  0
LINE
  5
11B
330
1F
100
AcDbEntity
  8
0
  6
Continuous
 62
     7
370
    25
100
AcDbLine
 10
84.6317308965
 20
123.6370044809
 30
0.0
 11
84.6317308965
 21
93.851106096
 31
0.0
  0
LINE
  5
11C
330
1F
100
AcDbEntity
  8
0
  6
Continuous
 62
     7
370
    25
100
AcDbLine
 10
83.6317308965
 20
125.3690552885
 30
0.0
 11
83.6317308965
 21
92.1190552885
 31
0.0
  0
LINE
  5
11D
330
1F
100
AcDbEntity
  8
0
  6
Continuous
 62
     7
370
    25
100
AcDbLine
 10
82.6317308965
 20
123.6370044809
 30
0.0
 11
82.6317308965
 21
93.851106096
 31
0.0
  0
LINE
  5
11E
330
1F
100
AcDbEntity
  8
0
  6
Continuous
 62
     7
370
    25
100
AcDbLine
 10
81.6317308965
 20
125.3690552885
 30
0.0
 11
81.6317308965
 21
92.1190552885
 31
0.0
  0
LINE
  5
11F
330
1F
100
AcDbEntity
  8
0
  6
Continuous
 62
     7
370
    25
100
AcDbLine
 10
80.6317308965
 20
123.6370044809
 30
0.0
 11
80.6317308965
 21
93.851106096
 31
0.0
  0
LINE
  5
120
330
1F
100
AcDbEntity
  8
0
  6
Continuous
 62
     7
370
    25
100
AcDbLine
 10
79.6317308965
 20
125.3690552885
 30
0.0
 11
79.6317308965
 21
92.1190552885
 31
0.0
  0
LINE
  5
121
330
1F
100
AcDbEntity
  8
0
  6
Continuous
 62
     7
370
    25
100
AcDbLine
 10
0.6317308965
 20
124.7440552885
 30
0.0
 11
0.6317308965
 21
92.7440552885
 31
0.0
  0
LINE
  5
122
330
1F
100
AcDbEntity
  8
0
  6
Continuous
 62
     1
370
    25
100
AcDbLine
 10
43.6317308965
 20
127.2440552885
 30
0.0
 11
43.6317308965
 21
90.2440552885
 31
0.0
  0
LINE
  5
123
330
1F
100
AcDbEntity
  8
0
  6
Continuous
 62
     7
370
    25
100
AcDbLine
 10
225.2494361832
 20
55.8551963894
 30
0.0
 11
195.1973979828
 21
73.2038687657
 31
0.0
  0
LINE
  5
124
330
1F
100
AcDbEntity
  8
0
  6
Continuous
 62
     7
370
    25
100
AcDbLine
 10
179.1986982606
 20
45.4903051695
 30
0.0
 11
209.250736461
 21
28.1416327933
 31
0.0
  0
SPLINE
  5
125
330
1F
100
AcDbEntity
  8
0
  6
Continuous
 62
     7
370
    25
100
AcDbSpline
210
0.0
220
0.0
230
1.0
 70
     8
 71
     3
 72
    15
 73
    11
 74
     0
 42
0.00000001
 43
0.00000001
 40
0.0
 40
0.0
 40
0.0
 40
0.0
 40
0.1257511088605245
 40
0.2668408593828037
 40
0.4083981674894953
 40
0.550518870120383
 40
0.6932277796197605
 40
0.8364890770189938
 40
0.9802252178839908
 40
1.0
 40
1.0
 40
1.0
 40
1.0
 10
225.7883630188873
 20
58.3058593329595
 30
0.0
 10
225.6021639661808
 20
58.36877793284343
 30
0.0
 10
225.207054008975
 20
58.50228970396279
 30
0.0
 10
224.5705661547136
 20
58.63353366548375
 30
0.0
 10
223.8886156062493
 20
58.71545097313914
 30
0.0
 10
223.1834048159727
 20
58.73532015134023
 30
0.0
 10
222.4584205734397
 20
58.69664511727579
 30
0.0
 10
221.7148491967585
 20
58.59160664123736
 30
0.0
 10
221.1774960906516
 20
58.48920059065222
 30
0.0
 10
220.8862478330252
 20
58.40457928696308
 30
0.0
 10
220.8510246764847
 20
58.39434530496165
 30
0.0
  0
SPLINE
  5
126
330
1F
100
AcDbEntity
  8
0
  6
Continuous
 62
     7
370
    25
100
AcDbSpline
210
0.0
220
0.0
230
1.0
 70
     8
 71
     3
 72
    16
 73
    12
 74
     0
 42
0.00000001
 43
0.00000001
 40
0.0
 40
0.0
 40
0.0
 40
0.0
 40
0.0092437746809751
 40
0.1511127719302651
 40
0.2927245253318245
 40
0.4339730204275566
 40
0.5747519746306263
 40
0.7149730537883344
 40
0.8545880913837955
 40
0.9936097120557452
 40
1.0
 40
1.0
 40
1.0
 40
1.0
 10
204.8503947229902
 20
30.68189600760097
 30
0.0
 10
204.8545139900955
 20
30.66487994052121
 30
0.0
 10
204.9218537827767
 20
30.38670947958745
 30
0.0
 10
205.0960040162762
 20
29.88322722755568
 30
0.0
 10
205.3756181587001
 20
29.17832792747674
 30
0.0
 10
205.7050947438211
 20
28.52279905088827
 30
0.0
 10
206.076864307309
 20
27.91465429381379
 30
0.0
 10
206.4895590427591
 20
27.35556821658859
 30
0.0
 10
206.9461326903487
 20
26.8553219547824
 30
0.0
 10
207.273202823287
 20
26.53461996789076
 30
0.0
 10
207.4575015481983
 20
26.396892296141
 30
0.0
 10
207.4656007605059
 20
26.39083970052659
 30
0.0
  0
LINE
  5
127
330
1F
100
AcDbEntity
  8
0
  6
Continuous
 62
     7
370
    25
100
AcDbLine
 10
240.6414702227
 20
49.8562374272
 30
0.0
 11
226.8528879896
 21
57.8162165174
 31
0.0
  0
LINE
  5
128
330
1F
100
AcDbEntity
  8
0
  6
Continuous
 62
     7
370
    25
100
AcDbLine
 10
208.3543914358
 20
25.7724086093
 30
0.0
 11
222.142973669
 21
17.8124295191
 31
0.0
  0
LINE
  5
129
330
1F
100
AcDbEntity
  8
0
  6
Continuous
 62
     7
370
    25
100
AcDbLine
 10
251.3713083005
 20
41.4970288877
 30
0.0
 11
251.1912118191
 21
41.6009963734
 31
0.0
  0
LWPOLYLINE
  5
12A
330
1F
100
AcDbEntity
  8
0
  6
Continuous
 62
     7
370
    25
100
AcDbPolyline
 90
       94
 70
   128
 43
0.0
 10
175.8843396227
 20
52.815822073
 10
175.9101505512
 20
53.712713821
 10
175.9874655673
 20
54.6353139214
 10
176.1159319003
 20
55.5794127615
 10
176.2949633879
 20
56.5407026348
 10
176.5237431504
 20
57.5147973962
 10
176.8012273182
 20
58.4972524746
 10
177.1261497947
 20
59.483585153
 10
177.4970280331
 20
60.4692950214
 10
177.9121698012
 20
61.4498845118
 10
178.3696809023
 20
62.4208794193
 10
178.8674738181
 20
63.3778493169
 10
179.4032772338
 20
64.3164277704
 10
179.9746464012
 20
65.2323322616
 10
180.578974294
 20
66.1213837283
 10
181.2135035024
 20
66.9795256327
 10
181.8753388153
 20
67.80284247
 10
182.56146043
 20
68.5875776344
 10
183.2687377308
 20
69.3301505593
 10
183.9939435738
 20
70.0271730547
 10
184.7337690109
 20
70.6754647669
 10
185.4848383884
 20
71.2720676894
 10
186.2437247489
 20
71.8142596601
 10
187.0069654681
 20
72.2995667812
 10
187.7710780536
 20
72.7257747077
 10
188.532576035
 20
73.0909387506
 10
189.2879848716
 20
73.3933927501
 10
190.0338578062
 20
73.631756678
 10
190.7667915916
 20
73.8049429343
 10
191.4834420191
 20
73.9121613099
 10
192.1805391771
 20
73.9529225919
 10
192.8549023712
 20
73.927040796
 10
193.5034546368
 20
73.8346340148
 10
194.1232367787
 20
73.6761238793
 10
194.7114208731
 20
73.4522336349
 10
195.265323171
 20
73.1639848414
 10
195.7824163431
 20
72.8126927119
 10
196.2603410119
 20
72.3999601119
 10
196.6969165168
 20
71.9276702456
 10
197.0901508638
 20
71.3979780632
 10
197.4382498149
 20
70.8133004288
 10
197.7396250744
 20
70.1763050922
 10
197.992901536
 20
69.4898985171
 10
198.1969235575
 20
68.7572126193
 10
198.350760233
 20
67.9815904765
 10
198.4537096411
 20
67.1665710745
 10
198.5053020474
 20
66.31587316
 10
198.5053020474
 20
65.4333782725
 10
198.4537096411
 20
64.5231130338
 10
198.350760233
 20
63.5892307752
 10
198.1969235575
 20
62.6359925875
 10
197.992901536
 20
61.6677478777
 10
197.7396250744
 20
60.6889145245
 10
197.4382498149
 20
59.7039587199
 10
197.0901508638
 20
58.7173745914
 10
196.6969165168
 20
57.733663696
 10
196.2603410119
 20
56.7573144809
 10
195.7824163431
 20
55.7927818037
 10
195.265323171
 20
54.8444666057
 10
194.7114208731
 20
53.9166958318
 10
194.1232367787
 20
53.013702687
 10
193.5034546368
 20
52.1396073221
 10
192.8549023712
 20
51.2983980338
 10
192.1805391771
 20
50.4939130669
 10
191.4834420191
 20
49.7298231021
 10
190.7667915916
 20
49.0096145064
 10
190.0338578062
 20
48.3365734265
 10
189.2879848716
 20
47.7137707946
 10
188.532576035
 20
47.1440483162
 10
187.7710780536
 20
46.6300055042
 10
187.0069654681
 20
46.1739878182
 10
186.2437247489
 20
45.7780759622
 10
185.4848383884
 20
45.4440763912
 10
184.7337690109
 20
45.1735130687
 10
183.9939435738
 20
44.967620513
 10
183.2687377308
 20
44.8273381647
 10
182.56146043
 20
44.7533060999
 10
181.8753388153
 20
44.74586211
 10
181.2135035024
 20
44.8050401602
 10
180.578974294
 20
44.9305702346
 10
179.9746464012
 20
45.1218795682
 10
179.4032772338
 20
45.3780952606
 10
178.8674738181
 20
45.6980482581
 10
178.3696809023
 20
46.0802786888
 10
177.9121698012
 20
46.5230425227
 10
177.4970280331
 20
47.0243195302
 10
177.1261497947
 20
47.5818224991
 10
176.8012273182
 20
48.1930076712
 10
176.5237431504
 20
48.855086349
 10
176.2949633879
 20
49.565037619
 10
176.1159319003
 20
50.3196221367
 10
175.9874655673
 20
51.1153969058
 10
175.9101505512
 20
51.9487309887
 10
175.8843396227
 20
52.815822073
  0
LWPOLYLINE
  5
12B
330
1F
100
AcDbEntity
  8
0
  6
Continuous
 62
     7
370
    25
100
AcDbPolyline
 90
       49
 70
   128
 43
0.0
 10
225.2494361832
 20
55.8551963894
 10
225.3173613714
 20
55.8153124651
 10
225.8344545435
 20
55.4640203357
 10
226.3123792123
 20
55.0512877357
 10
226.7489547172
 20
54.5789978693
 10
227.1421890642
 20
54.049305687
 10
227.4902880153
 20
53.4646280526
 10
227.7916632748
 20
52.827632716
 10
228.0449397365
 20
52.1412261409
 10
228.2489617579
 20
51.4085402431
 10
228.4027984334
 20
50.6329181002
 10
228.5057478416
 20
49.8178986983
 10
228.5573402478
 20
48.9672007838
 10
228.5573402478
 20
48.0847058963
 10
228.5057478416
 20
47.1744406575
 10
228.4027984334
 20
46.240558399
 10
228.2489617579
 20
45.2873202113
 10
228.0449397365
 20
44.3190755015
 10
227.7916632748
 20
43.3402421483
 10
227.4902880153
 20
42.3552863437
 10
227.1421890642
 20
41.3687022151
 10
226.7489547172
 20
40.3849913197
 10
226.3123792123
 20
39.4086421047
 10
225.8344545435
 20
38.4441094275
 10
225.3173613714
 20
37.4957942295
 10
224.7634590736
 20
36.5680234555
 10
224.1752749791
 20
35.6650303108
 10
223.5554928372
 20
34.7909349459
 10
222.9069405716
 20
33.9497256575
 10
222.2325773775
 20
33.1452406907
 10
221.5354802195
 20
32.3811507258
 10
220.818829792
 20
31.6609421302
 10
220.0858960066
 20
30.9879010503
 10
219.3400230721
 20
30.3650984184
 10
218.5846142355
 20
29.7953759399
 10
217.8231162541
 20
29.281333128
 10
217.0590036685
 20
28.8253154419
 10
216.2957629493
 20
28.4294035859
 10
215.5368765888
 20
28.0954040149
 10
214.7858072113
 20
27.8248406924
 10
214.0459817742
 20
27.6189481368
 10
213.3207759313
 20
27.4786657884
 10
212.6134986304
 20
27.4046337237
 10
211.9273770157
 20
27.3971897338
 10
211.2655417028
 20
27.4563677839
 10
210.6310124944
 20
27.5818978583
 10
210.0266846017
 20
27.773207192
 10
209.4553154342
 20
28.0294228843
 10
209.250736461
 20
28.1416327933
  0
LWPOLYLINE
  5
12C
330
1F
100
AcDbEntity
  8
0
  6
Continuous
 62
     7
370
    25
100
AcDbPolyline
 90
       85
 70
   128
 43
0.0
 10
178.0056599663
 20
54.0404342407
 10
178.0313637479
 20
54.8485349448
 10
178.108331347
 20
55.6817933766
 10
178.2361323294
 20
56.5355496169
 10
178.4140519801
 20
57.4050291145
 10
178.6410953005
 20
58.2853693875
 10
178.915992572
 20
59.1716472158
 10
179.2372064576
 20
60.0589061743
 10
179.6029405991
 20
60.9421843511
 10
180.0111496627
 20
61.8165420964
 10
180.4595507778
 20
62.6770896468
 10
180.9456363034
 20
63.5190144715
 10
181.4666878521
 20
64.3376081853
 10
182.0197914922
 20
65.1282928801
 10
182.601854044
 20
65.8866467263
 10
183.2096203774
 20
66.6084287017
 10
183.8396916166
 20
67.2896023086
 10
184.4885441477
 20
67.926358148
 10
185.1525493241
 20
68.5151352229
 10
185.8279937594
 20
69.052640853
 10
186.5111000945
 20
69.5358690888
 10
187.1980481217
 20
69.9621175221
 10
187.8849961488
 20
70.3290023986
 10
188.5681024839
 20
70.6344719494
 10
189.2435469193
 20
70.8768178648
 10
189.9075520957
 20
71.0546848481
 10
190.5564046268
 20
71.167078195
 10
191.186475866
 20
71.2133693564
 10
191.7942421994
 20
71.1932994532
 10
192.3763047511
 20
71.1069807245
 10
192.9294083913
 20
70.9548958997
 10
193.45045994
 20
70.7378954987
 10
193.9365454656
 20
70.4571930759
 10
194.3849465807
 20
70.1143584331
 10
194.7931556443
 20
69.7113088406
 10
195.1588897857
 20
69.2502983153
 10
195.4801036714
 20
68.7339050151
 10
195.7550009429
 20
68.1650168206
 10
195.9820442632
 20
67.5468151856
 10
196.159963914
 20
66.8827573442
 10
196.2877648964
 20
66.1765569773
 10
196.3647324954
 20
65.4321634439
 10
196.3904362771
 20
64.6537396944
 10
196.3647324954
 20
63.8456389904
 10
196.2877648964
 20
63.0123805586
 10
196.159963914
 20
62.1586243183
 10
195.9820442632
 20
61.2891448206
 10
195.7550009429
 20
60.4088045477
 10
195.4801036714
 20
59.5225267194
 10
195.1588897857
 20
58.6352677608
 10
194.7931556443
 20
57.751989584
 10
194.3849465807
 20
56.8776318388
 10
193.9365454656
 20
56.0170842884
 10
193.45045994
 20
55.1751594637
 10
192.9294083913
 20
54.3565657499
 10
192.3763047511
 20
53.5658810551
 10
191.7942421994
 20
52.8075272088
 10
191.186475866
 20
52.0857452335
 10
190.5564046268
 20
51.4045716265
 10
189.9075520957
 20
50.7678157871
 10
189.2435469193
 20
50.1790387123
 10
188.5681024839
 20
49.6415330822
 10
187.8849961488
 20
49.1583048463
 10
187.1980481217
 20
48.7320564131
 10
186.5111000945
 20
48.3651715365
 10
185.8279937594
 20
48.0597019857
 10
185.1525493241
 20
47.8173560704
 10
184.4885441477
 20
47.6394890871
 10
183.8396916166
 20
47.5270957401
 10
183.2096203774
 20
47.4808045788
 10
182.601854044
 20
47.500874482
 10
182.0197914922
 20
47.5871932107
 10
181.4666878521
 20
47.7392780355
 10
180.9456363034
 20
47.9562784364
 10
180.4595507778
 20
48.2369808592
 10
180.0111496627
 20
48.579815502
 10
179.6029405991
 20
48.9828650945
 10
179.2372064576
 20
49.4438756198
 10
178.915992572
 20
49.9602689201
 10
178.6410953005
 20
50.5291571145
 10
178.4140519801
 20
51.1473587496
 10
178.2361323294
 20
51.811416591
 10
178.108331347
 20
52.5176169578
 10
178.0313637479
 20
53.2620104913
 10
178.0056599663
 20
54.0404342407
  0
ARC
  5
12D
330
1F
100
AcDbEntity
  8
0
  6
Continuous
 62
     7
370
    25
100
AcDbCircle
 10
223.7439765333
 20
52.4309469142
 30
0.0
 40
6.21794359163524
100
AcDbArc
 50
50.2194747202
 51
70.2695185709
  0
ARC
  5
12E
330
1F
100
AcDbEntity
  8
0
  6
Continuous
 62
     7
370
    25
100
AcDbCircle
 10
211.4628113796
 20
31.1567791554
 30
0.0
 40
6.216930102573888
100
AcDbArc
 50
230.5171029144
 51
250.2452470036
  0
LWPOLYLINE
  5
12F
330
1F
100
AcDbEntity
  8
0
  6
Continuous
 62
     7
370
    25
100
AcDbPolyline
 90
       52
 70
   128
 43
0.0
 10
240.6414702227
 20
49.8562374272
 10
240.9282071507
 20
49.680112573
 10
241.4716720166
 20
49.2820061325
 10
241.975357898
 20
48.8229347854
 10
242.4372769767
 20
48.3047102765
 10
242.8556062692
 20
47.7293778012
 10
243.2286948209
 20
47.0992079341
 10
243.5550702218
 20
46.4166876676
 10
243.8334444172
 20
45.6845105974
 10
244.0627187913
 20
44.9055662919
 10
244.241988503
 20
44.0829288885
 10
244.3705460566
 20
43.2198449611
 10
244.4478840942
 20
42.3197207077
 10
244.4736973978
 20
41.3861085075
 10
244.4478840942
 20
40.4226929013
 10
244.3705460566
 20
39.4332760503
 10
244.241988503
 20
38.421762731
 10
244.0627187913
 20
37.3921449241
 10
243.8334444172
 20
36.3484860609
 10
243.5550702218
 20
35.294904986
 10
243.2286948209
 20
34.2355597026
 10
242.8556062692
 20
33.1746309626
 10
242.4372769767
 20
32.116305767
 10
241.975357898
 20
31.0647608419
 10
241.4716720166
 20
30.0241461546
 10
240.9282071507
 20
28.998568536
 10
240.3471081078
 20
27.9920754723
 10
239.7306682202
 20
27.0086391319
 10
239.0813202947
 20
26.0521406887
 10
238.4016270109
 20
25.1263550051
 10
237.6942708075
 20
24.2349357342
 10
236.9620432964
 20
23.3814009006
 10
236.2078342451
 20
22.5691190164
 10
235.434620172
 20
21.8012957871
 10
234.6454525999
 20
21.0809614601
 10
233.8434460128
 20
20.410958866
 10
233.031765564
 20
19.793932199
 10
232.2136145857
 20
19.2323165813
 10
231.3922219458
 20
18.7283284532
 10
230.570829306
 20
18.2839568257
 10
229.7526783277
 20
17.9009554306
 10
228.9409978789
 20
17.5808357992
 10
228.1389912918
 20
17.3248612977
 10
227.3498237197
 20
17.1340421405
 10
226.5766096466
 20
17.0091314034
 10
225.8224005953
 20
16.9506220522
 10
225.0901730842
 20
16.9587449966
 10
224.3828168808
 20
17.033468179
 10
223.703123597
 20
17.1744967011
 10
223.0537756715
 20
17.3812739878
 10
222.4373357839
 20
17.6529839836
 10
222.142973669
 20
17.8124295191
  0
LINE
  5
130
330
1F
100
AcDbEntity
  8
0
  6
Continuous
 62
     7
370
    25
100
AcDbLine
 10
216.8965329315
 20
20.841135289
 30
0.0
 11
216.8965329315
 21
15.8018341472
 31
0.0
  0
LINE
  5
131
330
1F
100
AcDbEntity
  8
0
  6
Continuous
 62
     7
370
    25
100
AcDbLine
 10
245.8879109602
 20
51.866832799
 30
0.0
 11
235.5587785252
 21
52.7904128885
 31
0.0
  0
LINE
  5
132
330
1F
100
AcDbEntity
  8
0
  6
Continuous
 62
     7
370
    25
100
AcDbLine
 10
245.8879109602
 20
32.5382004396
 30
0.0
 11
245.8879109602
 21
51.866832799
 31
0.0
  0
LINE
  5
133
330
1F
100
AcDbEntity
  8
0
  6
Continuous
 62
     7
370
    25
100
AcDbLine
 10
231.3922219458
 20
14.5057011137
 30
0.0
 11
245.8879109602
 21
32.5382004396
 31
0.0
  0
LINE
  5
134
330
1F
100
AcDbEntity
  8
0
  6
Continuous
 62
     7
370
    25
100
AcDbLine
 10
216.8965329315
 20
15.8018341472
 30
0.0
 11
231.3922219458
 21
14.5057011137
 31
0.0
  0
LINE
  5
135
330
1F
100
AcDbEntity
  8
0
  6
Continuous
 62
     7
370
    25
100
AcDbLine
 10
231.3922219458
 20
14.5057011137
 30
0.0
 11
236.6955228047
 21
11.4441706944
 31
0.0
  0
LINE
  5
136
330
1F
100
AcDbEntity
  8
0
  6
Continuous
 62
     7
370
    25
100
AcDbLine
 10
245.8879109602
 20
32.5382004396
 30
0.0
 11
251.1912118191
 21
29.4766700203
 31
0.0
  0
LINE
  5
137
330
1F
100
AcDbEntity
  8
0
  6
Continuous
 62
     7
370
    25
100
AcDbLine
 10
236.6955228047
 20
11.4441706944
 30
0.0
 11
251.1912118191
 21
29.4766700203
 31
0.0
  0
LINE
  5
138
330
1F
100
AcDbEntity
  8
0
  6
Continuous
 62
     7
370
    25
100
AcDbLine
 10
245.8879109602
 20
51.866832799
 30
0.0
 11
251.1912118191
 21
48.8053023797
 31
0.0
  0
LINE
  5
139
330
1F
100
AcDbEntity
  8
0
  6
Continuous
 62
     7
370
    25
100
AcDbLine
 10
251.1912118191
 20
29.4766700203
 30
0.0
 11
251.1912118191
 21
48.8053023797
 31
0.0
  0
LWPOLYLINE
  5
13A
330
1F
100
AcDbEntity
  8
0
  6
Continuous
 62
     7
370
    25
100
AcDbPolyline
 90
       46
 70
   128
 43
0.0
 10
251.3713083005
 20
41.4970288877
 10
251.575573166
 20
41.3731665991
 10
252.0925385366
 20
41.0012052082
 10
252.5700046573
 20
40.568452865
 10
253.0058836903
 20
40.0768018852
 10
253.3982696474
 20
39.5284021335
 10
253.7454467248
 20
38.9256516226
 10
254.0458968054
 20
38.271186027
 10
254.2983060974
 20
37.5678671583
 10
254.5015708793
 20
36.8187704509
 10
254.6548023258
 20
36.0271715141
 10
254.7573303948
 20
35.1965318087
 10
254.8087067572
 20
34.3304835107
 10
254.8087067572
 20
33.432813629
 10
254.7573303948
 20
32.5074474457
 10
254.6548023258
 20
31.5584313515
 10
254.5015708793
 20
30.5899151523
 10
254.2983060974
 20
29.6061339232
 10
254.0458968054
 20
28.6113894891
 10
253.7454467248
 20
27.6100316142
 10
253.3982696474
 20
26.6064389819
 10
253.0058836903
 20
25.6050000474
 10
252.5700046573
 20
24.6100938482
 10
252.0925385366
 20
23.6260708561
 10
251.575573166
 20
22.6572339532
 10
251.0213691036
 20
21.7078196168
 10
250.4323497427
 20
20.7819793943
 10
249.8110907151
 20
19.8837617493
 10
249.1603086286
 20
19.0170943591
 10
248.4828491874
 20
18.1857669396
 10
247.7816747495
 20
17.3934146742
 10
247.0598513723
 20
16.6435023177
 10
246.3205354056
 20
15.9393090461
 10
245.5669596902
 20
15.2839141172
 10
244.8024194208
 20
14.6801834065
 10
244.0302577376
 20
14.1307568746
 10
243.2538511071
 20
13.6380370241
 10
242.476594558
 20
13.2041783934
 10
241.7018868354
 20
12.8310781359
 10
240.9331155391
 20
12.5203677243
 10
240.1736423103
 20
12.2734058159
 10
239.4267881322
 20
12.0912723124
 10
238.6958188081
 20
11.9747636374
 10
237.9839306809
 20
11.9243892535
 10
237.2942366563
 20
11.9403694351
 10
237.1073999027
 20
11.9565418886
  0
LINE
  5
13B
330
1F
100
AcDbEntity
  8
0
  6
Continuous
 62
     7
370
    25
100
AcDbLine
 10
216.8965329315
 20
15.8018341472
 30
0.0
 11
222.1998337904
 21
12.7403037279
 31
0.0
  0
LINE
  5
13C
330
1F
100
AcDbEntity
  8
0
  6
Continuous
 62
     7
370
    25
100
AcDbLine
 10
222.1998337904
 20
12.7403037279
 30
0.0
 11
236.6955228047
 21
11.4441706944
 31
0.0
  0
LWPOLYLINE
  5
13D
330
1F
100
AcDbEntity
  8
0
  6
Continuous
 62
     7
370
    25
100
AcDbPolyline
 90
       50
 70
   128
 43
0.0
 10
252.0482926421
 20
41.0366455823
 10
252.4355826659
 20
40.8663024332
 10
252.9897867284
 20
40.5567584873
 10
253.5067520989
 20
40.1847970964
 10
253.9842182196
 20
39.7520447531
 10
254.4200972526
 20
39.2603937734
 10
254.8124832098
 20
38.7119940217
 10
255.1596602872
 20
38.1092435108
 10
255.4601103678
 20
37.4547779152
 10
255.7125196598
 20
36.7514590465
 10
255.9157844416
 20
36.002362339
 10
256.0690158881
 20
35.2107634023
 10
256.1715439572
 20
34.3801236968
 10
256.2229203196
 20
33.5140753989
 10
256.2229203196
 20
32.6164055172
 10
256.1715439572
 20
31.6910393338
 10
256.0690158881
 20
30.7420232396
 10
255.9157844416
 20
29.7735070405
 10
255.7125196598
 20
28.7897258114
 10
255.4601103678
 20
27.7949813772
 10
255.1596602872
 20
26.7936235024
 10
254.8124832098
 20
25.7900308701
 10
254.4200972526
 20
24.7885919355
 10
253.9842182196
 20
23.7936857364
 10
253.5067520989
 20
22.8096627442
 10
252.9897867284
 20
21.8408258414
 10
252.4355826659
 20
20.891411505
 10
251.8465633051
 20
19.9655712825
 10
251.2253042775
 20
19.0673536375
 10
250.5745221909
 20
18.2006862473
 10
249.8970627498
 20
17.3693588278
 10
249.1958883119
 20
16.5770065624
 10
248.4740649346
 20
15.8270942059
 10
247.734748968
 20
15.1229009342
 10
246.9811732526
 20
14.4675060054
 10
246.2166329832
 20
13.8637752947
 10
245.4444713
 20
13.3143487628
 10
244.6680646695
 20
12.8216289122
 10
243.8908081204
 20
12.3877702816
 10
243.1161003978
 20
12.0146700241
 10
242.3473291015
 20
11.7039596124
 10
241.5878558727
 20
11.4569977041
 10
240.8410016946
 20
11.2748642006
 10
240.1100323705
 20
11.1583555256
 10
239.3981442433
 20
11.1079811417
 10
238.7084502187
 20
11.1239613233
 10
238.043966153
 20
11.2062261932
 10
237.4075976661
 20
11.3544160281
 10
236.8021274355
 20
11.5678828314
 10
236.7967701581
 20
11.5701214394
  0
LWPOLYLINE
  5
13E
330
1F
100
AcDbEntity
  8
0
  6
Continuous
 62
     7
370
    25
100
AcDbPolyline
 90
       52
 70
   128
 43
0.0
 10
253.4625062045
 20
40.2202374705
 10
253.8497962283
 20
40.0498943214
 10
254.4040002907
 20
39.7403503754
 10
254.9209656613
 20
39.3683889846
 10
255.398431782
 20
38.9356366413
 10
255.834310815
 20
38.4439856615
 10
256.2266967722
 20
37.8955859099
 10
256.5738738496
 20
37.292835399
 10
256.8743239301
 20
36.6383698034
 10
257.1267332222
 20
35.9350509346
 10
257.329998004
 20
35.1859542272
 10
257.4832294505
 20
34.3943552904
 10
257.5857575195
 20
33.563715585
 10
257.6371338819
 20
32.6976672871
 10
257.6371338819
 20
31.7999974054
 10
257.5857575195
 20
30.874631222
 10
257.4832294505
 20
29.9256151278
 10
257.329998004
 20
28.9570989287
 10
257.1267332222
 20
27.9733176996
 10
256.8743239301
 20
26.9785732654
 10
256.5738738496
 20
25.9772153906
 10
256.2266967722
 20
24.9736227583
 10
255.834310815
 20
23.9721838237
 10
255.398431782
 20
22.9772776245
 10
254.9209656613
 20
21.9932546324
 10
254.4040002907
 20
21.0244177295
 10
253.8497962283
 20
20.0750033932
 10
253.2607768674
 20
19.1491631706
 10
252.6395178399
 20
18.2509455256
 10
251.9887357533
 20
17.3842781354
 10
251.3112763122
 20
16.552950716
 10
250.6101018743
 20
15.7605984506
 10
249.888278497
 20
15.0106860941
 10
249.1489625304
 20
14.3064928224
 10
248.3953868149
 20
13.6510978936
 10
247.6308465456
 20
13.0473671828
 10
246.8586848624
 20
12.497940651
 10
246.0822782319
 20
12.0052208004
 10
245.3050216828
 20
11.5713621697
 10
244.5303139602
 20
11.1982619123
 10
243.7615426638
 20
10.8875515006
 10
243.002069435
 20
10.6405895922
 10
242.2552152569
 20
10.4584560888
 10
241.5242459329
 20
10.3419474137
 10
240.8123578057
 20
10.2915730298
 10
240.122663781
 20
10.3075532115
 10
239.4581797154
 20
10.3898180814
 10
238.8218112285
 20
10.5380079162
 10
238.2163409979
 20
10.7514747196
 10
237.6444165908
 20
11.0292850554
 10
237.1085388871
 20
11.3702241297
 10
236.8991021535
 20
11.5284712952
  0
LWPOLYLINE
  5
13F
330
1F
100
AcDbEntity
  8
0
  6
Continuous
 62
     7
370
    25
100
AcDbPolyline
 90
       52
 70
   128
 43
0.0
 10
254.8767197669
 20
39.4038293587
 10
255.2640097907
 20
39.2334862096
 10
255.8182138531
 20
38.9239422636
 10
256.3351792237
 20
38.5519808728
 10
256.8126453444
 20
38.1192285295
 10
257.2485243774
 20
37.6275775497
 10
257.6409103345
 20
37.0791777981
 10
257.9880874119
 20
36.4764272871
 10
258.2885374925
 20
35.8219616916
 10
258.5409467845
 20
35.1186428228
 10
258.7442115664
 20
34.3695461154
 10
258.8974430129
 20
33.5779471786
 10
258.9999710819
 20
32.7473074732
 10
259.0513474443
 20
31.8812591752
 10
259.0513474443
 20
30.9835892936
 10
258.9999710819
 20
30.0582231102
 10
258.8974430129
 20
29.109207016
 10
258.7442115664
 20
28.1406908169
 10
258.5409467845
 20
27.1569095877
 10
258.2885374925
 20
26.1621651536
 10
257.9880874119
 20
25.1608072788
 10
257.6409103345
 20
24.1572146465
 10
257.2485243774
 20
23.1557757119
 10
256.8126453444
 20
22.1608695127
 10
256.3351792237
 20
21.1768465206
 10
255.8182138531
 20
20.2080096177
 10
255.2640097907
 20
19.2585952813
 10
254.6749904298
 20
18.3327550588
 10
254.0537314023
 20
17.4345374138
 10
253.4029493157
 20
16.5678700236
 10
252.7254898746
 20
15.7365426042
 10
252.0243154367
 20
14.9441903388
 10
251.3024920594
 20
14.1942779823
 10
250.5631760927
 20
13.4900847106
 10
249.8096003773
 20
12.8346897818
 10
249.0450601079
 20
12.230959071
 10
248.2728984247
 20
11.6815325391
 10
247.4964917943
 20
11.1888126886
 10
246.7192352452
 20
10.7549540579
 10
245.9445275226
 20
10.3818538005
 10
245.1757562262
 20
10.0711433888
 10
244.4162829974
 20
9.8241814804
 10
243.6694288193
 20
9.642047977
 10
242.9384594952
 20
9.5255393019
 10
242.2265713681
 20
9.475164918
 10
241.5368773434
 20
9.4911450997
 10
240.8723932778
 20
9.5734099696
 10
240.2360247909
 20
9.7215998044
 10
239.6305545603
 20
9.9350666077
 10
239.0586301532
 20
10.2128769435
 10
238.5227524495
 20
10.5538160179
 10
238.3133157158
 20
10.7120631834
  0
LWPOLYLINE
  5
140
330
1F
100
AcDbEntity
  8
0
  6
Continuous
 62
     1
370
    25
100
AcDbPolyline
 90
       66
 70
   128
 43
0.0
 10
221.1259955109
 20
58.2356080211
 10
221.6458658175
 20
58.3294038899
 10
222.4021371651
 20
58.4124242958
 10
223.1372376307
 20
58.427996015
 10
223.8481465288
 20
58.3760550599
 10
224.5319425822
 20
58.2568148672
 10
225.1858159262
 20
58.0707654204
 10
225.8070796551
 20
57.8186712365
 10
226.393180863
 20
57.5015682245
 10
226.9417111342
 20
57.1207594289
 10
227.4504164402
 20
56.6778096747
 10
227.9172064017
 20
56.1745391373
 10
228.3401628788
 20
55.6130158634
 10
228.7175478525
 20
54.9955472725
 10
229.047810567
 20
54.3246706756
 10
229.329593902
 20
53.6031428484
 10
229.5617399492
 20
52.8339287036
 10
229.7432947709
 20
52.0201891072
 10
229.8735123193
 20
51.1652678896
 10
229.9518575025
 20
50.2726781055
 10
229.9780083835
 20
49.3460875978
 10
229.9518575025
 20
48.3893039256
 10
229.8735123193
 20
47.4062587183
 10
229.7432947709
 20
46.4009915195
 10
229.5617399492
 20
45.3776331878
 10
229.329593902
 20
44.340388922
 10
229.047810567
 20
43.2935209814
 10
228.7175478525
 20
42.2413311708
 10
228.3401628788
 20
41.1881431639
 10
227.9172064017
 20
40.138284736
 10
227.4504164402
 20
39.0960699807
 10
226.9417111342
 20
38.065781582
 10
226.393180863
 20
37.0516532159
 10
225.8070796551
 20
36.0578521533
 10
225.1858159262
 20
35.0884621361
 10
224.5319425822
 20
34.1474665957
 10
223.8481465288
 20
33.2387322846
 10
223.1372376307
 20
32.365993387
 10
222.4021371651
 20
31.5328361743
 10
221.6458658175
 20
30.7426842682
 10
220.8715312691
 20
29.9987845724
 10
220.0823154265
 20
29.3041939302
 10
219.2814613471
 20
28.6617665636
 10
218.472259912
 20
28.0741423444
 10
217.6580363034
 20
27.5437359467
 10
216.8421363408
 20
27.072726924
 10
216.0279127323
 20
26.6630507535
 10
215.2187112971
 20
26.3163908824
 10
214.4178572177
 20
26.0341718106
 10
213.6286413752
 20
25.8175532366
 10
212.8543068267
 20
25.6674252928
 10
212.0980354791
 20
25.5844048869
 10
211.3629350135
 20
25.5688331677
 10
210.6520261155
 20
25.6207741228
 10
209.9682300621
 20
25.7400143155
 10
209.314356718
 20
25.9260637623
 10
208.6930929891
 20
26.1781579462
 10
208.1069917812
 20
26.4952609581
 10
207.5584615101
 20
26.8760697537
 10
207.0497562041
 20
27.319019508
 10
206.5829662425
 20
27.8222900454
 10
206.1600097654
 20
28.3838133193
 10
205.7826247917
 20
29.0012819102
 10
205.4523620772
 20
29.6721585071
 10
205.1705787423
 20
30.3936863343
 10
205.1272957887
 20
30.5220444249
  0
LWPOLYLINE
  5
141
330
1F
100
AcDbEntity
  8
0
  6
Continuous
 62
     1
370
    25
100
AcDbPolyline
 90
       48
 70
   128
 43
0.0
 10
227.7225185658
 20
57.2094431008
 10
228.1867756648
 20
56.7829138756
 10
228.6486947436
 20
56.2646893668
 10
229.0670240361
 20
55.6893568915
 10
229.4401125878
 20
55.0591870244
 10
229.7664879887
 20
54.3766667579
 10
230.044862184
 20
53.6444896877
 10
230.2741365582
 20
52.8655453822
 10
230.4534062699
 20
52.0429079788
 10
230.5819638235
 20
51.1798240514
 10
230.659301861
 20
50.279699798
 10
230.6851151647
 20
49.3460875978
 10
230.659301861
 20
48.3826719915
 10
230.5819638235
 20
47.3932551406
 10
230.4534062699
 20
46.3817418212
 10
230.2741365582
 20
45.3521240144
 10
230.044862184
 20
44.3084651512
 10
229.7664879887
 20
43.2548840763
 10
229.4401125878
 20
42.1955387929
 10
229.0670240361
 20
41.1346100529
 10
228.6486947436
 20
40.0762848573
 10
228.1867756648
 20
39.0247399321
 10
227.6830897835
 20
37.9841252449
 10
227.1396249176
 20
36.9585476263
 10
226.5585258746
 20
35.9520545626
 10
225.9420859871
 20
34.9686182222
 10
225.2927380616
 20
34.012119779
 10
224.6130447777
 20
33.0863340954
 10
223.9056885744
 20
32.1949148245
 10
223.1734610633
 20
31.3413799909
 10
222.4192520119
 20
30.5290981067
 10
221.6460379389
 20
29.7612748774
 10
220.8568703668
 20
29.0409405504
 10
220.0548637796
 20
28.3709379563
 10
219.2431833309
 20
27.7539112892
 10
218.4250323525
 20
27.1922956715
 10
217.6036397127
 20
26.6883075435
 10
216.7822470729
 20
26.243935916
 10
215.9640960945
 20
25.8609345208
 10
215.1524156458
 20
25.5408148895
 10
214.3504090586
 20
25.284840388
 10
213.5612414866
 20
25.0940212307
 10
212.7880274135
 20
24.9691104937
 10
212.0338183622
 20
24.9106011425
 10
211.3015908511
 20
24.9187240869
 10
210.5942346477
 20
24.9934472693
 10
209.9145413638
 20
25.1344757914
 10
209.3615213796
 20
25.3057279476
  0
LINE
  5
142
330
1F
100
AcDbEntity
  8
0
  6
Continuous
 62
     7
370
    25
100
AcDbLine
 10
121.3323425481
 20
51.4232335961
 30
0.0
 11
121.3323425481
 21
31.9232335961
 31
0.0
  0
LINE
  5
143
330
1F
100
AcDbEntity
  8
0
  6
Continuous
 62
     7
370
    25
100
AcDbLine
 10
158.3323425481
 20
31.9232335961
 30
0.0
 11
158.3323425481
 21
51.4232335961
 31
0.0
  0
ARC
  5
144
330
1F
100
AcDbEntity
  8
0
  6
Continuous
 62
     7
370
    25
100
AcDbCircle
 10
121.8323425481
 20
31.9232335961
 30
0.0
 40
0.5000000000000142
100
AcDbArc
 50
180.0
 51
270.0
  0
ARC
  5
145
330
1F
100
AcDbEntity
  8
0
  6
Continuous
 62
     7
370
    25
100
AcDbCircle
 10
157.8323425481
 20
31.9232335961
 30
0.0
 40
0.5
100
AcDbArc
 50
270.0
 51
0.0
  0
LINE
  5
146
330
1F
100
AcDbEntity
  8
0
  6
Continuous
 62
     7
370
    25
100
AcDbLine
 10
156.4573425481
 20
73.9232335961
 30
0.0
 11
154.7252917405
 21
74.9232335961
 31
0.0
  0
LINE
  5
147
330
1F
100
AcDbEntity
  8
0
  6
Continuous
 62
     7
370
    25
100
AcDbLine
 10
124.9393933556
 20
74.9232335961
 30
0.0
 11
123.2073425481
 21
73.9232335961
 31
0.0
  0
LINE
  5
148
330
1F
100
AcDbEntity
  8
0
  6
Continuous
 62
     7
370
    25
100
AcDbLine
 10
123.2073425481
 20
73.9232335961
 30
0.0
 11
124.9393933556
 21
72.9232335961
 31
0.0
  0
LINE
  5
149
330
1F
100
AcDbEntity
  8
0
  6
Continuous
 62
     7
370
    25
100
AcDbLine
 10
154.7252917405
 20
72.9232335961
 30
0.0
 11
156.4573425481
 21
73.9232335961
 31
0.0
  0
LINE
  5
14A
330
1F
100
AcDbEntity
  8
0
  6
Continuous
 62
     7
370
    25
100
AcDbLine
 10
156.4573425481
 20
71.9232335961
 30
0.0
 11
154.7252917405
 21
72.9232335961
 31
0.0
  0
LINE
  5
14B
330
1F
100
AcDbEntity
  8
0
  6
Continuous
 62
     7
370
    25
100
AcDbLine
 10
124.9393933556
 20
72.9232335961
 30
0.0
 11
123.2073425481
 21
71.9232335961
 31
0.0
  0
LINE
  5
14C
330
1F
100
AcDbEntity
  8
0
  6
Continuous
 62
     7
370
    25
100
AcDbLine
 10
123.2073425481
 20
71.9232335961
 30
0.0
 11
124.9393933556
 21
70.9232335961
 31
0.0
  0
LINE
  5
14D
330
1F
100
AcDbEntity
  8
0
  6
Continuous
 62
     7
370
    25
100
AcDbLine
 10
154.7252917405
 20
70.9232335961
 30
0.0
 11
156.4573425481
 21
71.9232335961
 31
0.0
  0
LINE
  5
14E
330
1F
100
AcDbEntity
  8
0
  6
Continuous
 62
     7
370
    25
100
AcDbLine
 10
156.4573425481
 20
69.9232335961
 30
0.0
 11
154.7252917405
 21
70.9232335961
 31
0.0
  0
LINE
  5
14F
330
1F
100
AcDbEntity
  8
0
  6
Continuous
 62
     7
370
    25
100
AcDbLine
 10
124.9393933556
 20
70.9232335961
 30
0.0
 11
123.2073425481
 21
69.9232335961
 31
0.0
  0
LINE
  5
150
330
1F
100
AcDbEntity
  8
0
  6
Continuous
 62
     7
370
    25
100
AcDbLine
 10
123.2073425481
 20
69.9232335961
 30
0.0
 11
124.9393933556
 21
68.9232335961
 31
0.0
  0
LINE
  5
151
330
1F
100
AcDbEntity
  8
0
  6
Continuous
 62
     7
370
    25
100
AcDbLine
 10
154.7252917405
 20
68.9232335961
 30
0.0
 11
156.4573425481
 21
69.9232335961
 31
0.0
  0
LINE
  5
152
330
1F
100
AcDbEntity
  8
0
  6
Continuous
 62
     7
370
    25
100
AcDbLine
 10
156.4573425481
 20
67.9232335961
 30
0.0
 11
154.7252917405
 21
68.9232335961
 31
0.0
  0
LINE
  5
153
330
1F
100
AcDbEntity
  8
0
  6
Continuous
 62
     7
370
    25
100
AcDbLine
 10
124.9393933556
 20
68.9232335961
 30
0.0
 11
123.2073425481
 21
67.9232335961
 31
0.0
  0
LINE
  5
154
330
1F
100
AcDbEntity
  8
0
  6
Continuous
 62
     7
370
    25
100
AcDbLine
 10
123.2073425481
 20
67.9232335961
 30
0.0
 11
123.2073425481
 21
58.9232335961
 31
0.0
  0
LINE
  5
155
330
1F
100
AcDbEntity
  8
0
  6
Continuous
 62
     7
370
    25
100
AcDbLine
 10
156.4573425481
 20
58.9232335961
 30
0.0
 11
156.4573425481
 21
67.9232335961
 31
0.0
  0
LINE
  5
156
330
1F
100
AcDbEntity
  8
0
  6
Continuous
 62
     7
370
    25
100
AcDbLine
 10
123.8323425481
 20
31.4232335961
 30
0.0
 11
123.8323425481
 21
-11.0767664039
 31
0.0
  0
LINE
  5
157
330
1F
100
AcDbEntity
  8
0
  6
Continuous
 62
     7
370
    25
100
AcDbLine
 10
155.8323425481
 20
-11.0767664039
 30
0.0
 11
155.8323425481
 21
31.4232335961
 31
0.0
  0
LINE
  5
158
330
1F
100
AcDbEntity
  8
0
  6
Continuous
 62
     7
370
    25
100
AcDbLine
 10
139.8323425481
 20
51.4232335961
 30
0.0
 11
139.8323425481
 21
58.9232335961
 31
0.0
  0
LINE
  5
159
330
1F
100
AcDbEntity
  8
0
  6
Continuous
 62
     7
370
    25
100
AcDbLine
 10
139.8323425481
 20
51.4232335961
 30
0.0
 11
119.3323425481
 21
51.4232335961
 31
0.0
  0
LINE
  5
15A
330
1F
100
AcDbEntity
  8
0
  6
Continuous
 62
     7
370
    25
100
AcDbLine
 10
119.3323425481
 20
51.4232335961
 30
0.0
 11
119.3323425481
 21
58.9232335961
 31
0.0
  0
LINE
  5
15B
330
1F
100
AcDbEntity
  8
0
  6
Continuous
 62
     7
370
    25
100
AcDbLine
 10
139.8323425481
 20
58.9232335961
 30
0.0
 11
119.3323425481
 21
58.9232335961
 31
0.0
  0
LINE
  5
15C
330
1F
100
AcDbEntity
  8
0
  6
Continuous
 62
     7
370
    25
100
AcDbLine
 10
160.3323425481
 20
51.4232335961
 30
0.0
 11
160.3323425481
 21
58.9232335961
 31
0.0
  0
LINE
  5
15D
330
1F
100
AcDbEntity
  8
0
  6
Continuous
 62
     7
370
    25
100
AcDbLine
 10
160.3323425481
 20
51.4232335961
 30
0.0
 11
139.8323425481
 21
51.4232335961
 31
0.0
  0
LINE
  5
15E
330
1F
100
AcDbEntity
  8
0
  6
Continuous
 62
     7
370
    25
100
AcDbLine
 10
160.3323425481
 20
58.9232335961
 30
0.0
 11
139.8323425481
 21
58.9232335961
 31
0.0
  0
LINE
  5
15F
330
1F
100
AcDbEntity
  8
0
  6
Continuous
 62
     7
370
    25
100
AcDbLine
 10
121.8323425481
 20
31.4232335961
 30
0.0
 11
157.8323425481
 21
31.4232335961
 31
0.0
  0
LINE
  5
160
330
1F
100
AcDbEntity
  8
0
  6
Continuous
 62
     7
370
    25
100
AcDbLine
 10
123.2073425481
 20
73.9232335961
 30
0.0
 11
156.4573425481
 21
73.9232335961
 31
0.0
  0
LINE
  5
161
330
1F
100
AcDbEntity
  8
0
  6
Continuous
 62
     7
370
    25
100
AcDbLine
 10
124.9393933556
 20
74.9232335961
 30
0.0
 11
154.7252917405
 21
74.9232335961
 31
0.0
  0
LINE
  5
162
330
1F
100
AcDbEntity
  8
0
  6
Continuous
 62
     7
370
    25
100
AcDbLine
 10
124.9393933556
 20
72.9232335961
 30
0.0
 11
154.7252917405
 21
72.9232335961
 31
0.0
  0
LINE
  5
163
330
1F
100
AcDbEntity
  8
0
  6
Continuous
 62
     7
370
    25
100
AcDbLine
 10
123.2073425481
 20
71.9232335961
 30
0.0
 11
156.4573425481
 21
71.9232335961
 31
0.0
  0
LINE
  5
164
330
1F
100
AcDbEntity
  8
0
  6
Continuous
 62
     7
370
    25
100
AcDbLine
 10
124.9393933556
 20
70.9232335961
 30
0.0
 11
154.7252917405
 21
70.9232335961
 31
0.0
  0
LINE
  5
165
330
1F
100
AcDbEntity
  8
0
  6
Continuous
 62
     7
370
    25
100
AcDbLine
 10
123.2073425481
 20
69.9232335961
 30
0.0
 11
156.4573425481
 21
69.9232335961
 31
0.0
  0
LINE
  5
166
330
1F
100
AcDbEntity
  8
0
  6
Continuous
 62
     7
370
    25
100
AcDbLine
 10
124.9393933556
 20
68.9232335961
 30
0.0
 11
154.7252917405
 21
68.9232335961
 31
0.0
  0
LINE
  5
167
330
1F
100
AcDbEntity
  8
0
  6
Continuous
 62
     7
370
    25
100
AcDbLine
 10
123.2073425481
 20
67.9232335961
 30
0.0
 11
156.4573425481
 21
67.9232335961
 31
0.0
  0
LINE
  5
168
330
1F
100
AcDbEntity
  8
0
  6
Continuous
 62
     7
370
    25
100
AcDbLine
 10
123.8323425481
 20
-11.0767664039
 30
0.0
 11
155.8323425481
 21
-11.0767664039
 31
0.0
  0
LINE
  5
169
330
1F
100
AcDbEntity
  8
0
  6
Continuous
 62
     1
370
    25
100
AcDbLine
 10
121.3323425481
 20
31.9232335961
 30
0.0
 11
158.3323425481
 21
31.9232335961
 31
0.0
  0
ENDSEC
  0
SECTION
  2
OBJECTS
  0
DICTIONARY
  5
C
330
0
100
AcDbDictionary
281
     1
  3
ACAD_GROUP
350
D
  3
ACAD_LAYOUT
350
1A
  3
ACAD_MLINESTYLE
350
17
  3
ACAD_PLOTSETTINGS
350
19
  3
ACAD_PLOTSTYLENAME
350
E
  3
ACAD_SCALELIST
350
47
  3
DWGPROPS
350
16A
  0
DICTIONARY
  5
D
102
{ACAD_REACTORS
330
C
102
}
330
C
100
AcDbDictionary
281
     1
  0
DICTIONARY
  5
1A
102
{ACAD_REACTORS
330
C
102
}
330
C
100
AcDbDictionary
281
     1
  3
Layout1
350
1E
  3
Layout2
350
26
  3
Model
350
22
  0
DICTIONARY
  5
17
102
{ACAD_REACTORS
330
C
102
}
330
C
100
AcDbDictionary
281
     1
  3
Standard
350
18
  0
DICTIONARY
  5
19
102
{ACAD_REACTORS
330
C
102
}
330
C
100
AcDbDictionary
281
     1
  0
ACDBDICTIONARYWDFLT
  5
E
102
{ACAD_REACTORS
330
C
102
}
330
C
100
AcDbDictionary
281
     1
  3
Normal
350
F
100
AcDbDictionaryWithDefault
340
F
  0
DICTIONARY
  5
47
102
{ACAD_REACTORS
330
C
102
}
330
C
100
AcDbDictionary
281
     1
  3
A0
350
48
  3
A1
350
49
  3
A2
350
4A
  3
A3
350
4B
  3
A4
350
4C
  3
A5
350
4D
  3
A6
350
4E
  3
A7
350
4F
  3
A8
350
50
  3
A9
350
51
  3
B0
350
52
  3
B1
350
53
  3
B2
350
54
  3
B3
350
55
  3
B4
350
56
  3
B5
350
57
  3
B6
350
58
  3
B7
350
59
  3
B8
350
5A
  3
B9
350
5B
  3
C0
350
5C
  3
C1
350
5D
  3
C2
350
5E
  3
C3
350
5F
  3
C4
350
60
  3
C5
350
61
  3
C6
350
62
  3
C7
350
63
  3
C8
350
64
  3
C9
350
65
  3
D0
350
66
  3
D1
350
67
  3
D2
350
68
  0
XRECORD
  5
16A
102
{ACAD_REACTORS
330
C
102
}
330
C
100
AcDbXrecord
280
     1
  1
DWGPROPS COOKIE
  2

  3

  4

  6

  7

  8
b.kav
  9

300
=
301
=
302
=
303
=
304
=
305
=
306
=
307
=
308
=
309
=
 40
0.0
 41
2459948.454381921
 42
2459948.454382107
  1

 90
        0
  0
LAYOUT
  5
1E
102
{ACAD_REACTORS
330
1A
102
}
330
1A
100
AcDbPlotSettings
  1

  2
none_device
  4

  6

 40
0.0
 41
0.0
 42
0.0
 43
0.0
 44
0.0
 45
0.0
 46
0.0
 47
0.0
 48
0.0
 49
0.0
140
0.0
141
0.0
142
1.0
143
1.0
 70
   688
 72
     1
 73
     0
 74
     5
  7

 75
    16
147
1.0
148
0.0
149
0.0
100
AcDbLayout
  1
Layout1
 70
     1
 71
     1
 10
0.0
 20
0.0
 11
420.0
 21
297.0
 12
0.0
 22
0.0
 32
0.0
 14
1.0000000000E+20
 24
1.0000000000E+20
 34
1.0000000000E+20
 15
-1.0000000000E+20
 25
-1.0000000000E+20
 35
-1.0000000000E+20
146
0.0
 13
0.0
 23
0.0
 33
0.0
 16
1.0
 26
0.0
 36
0.0
 17
0.0
 27
1.0
 37
0.0
 76
     0
330
1B
  0
LAYOUT
  5
26
102
{ACAD_REACTORS
330
1A
102
}
330
1A
100
AcDbPlotSettings
  1

  2
none_device
  4

  6

 40
0.0
 41
0.0
 42
0.0
 43
0.0
 44
0.0
 45
0.0
 46
0.0
 47
0.0
 48
0.0
 49
0.0
140
0.0
141
0.0
142
1.0
143
1.0
 70
   688
 72
     1
 73
     0
 74
     5
  7

 75
    16
147
1.0
148
0.0
149
0.0
100
AcDbLayout
  1
Layout2
 70
     1
 71
     2
 10
0.0
 20
0.0
 11
0.0
 21
0.0
 12
0.0
 22
0.0
 32
0.0
 14
0.0
 24
0.0
 34
0.0
 15
0.0
 25
0.0
 35
0.0
146
0.0
 13
0.0
 23
0.0
 33
0.0
 16
1.0
 26
0.0
 36
0.0
 17
0.0
 27
1.0
 37
0.0
 76
     0
330
23
  0
LAYOUT
  5
22
102
{ACAD_REACTORS
330
1A
102
}
330
1A
100
AcDbPlotSettings
  1

  2
none_device
  4
Letter_(8.50_x_11.00_Inches)
  6

 40
6.35
 41
6.35
 42
6.35000508
 43
6.35000508
 44
215.9
 45
279.4
 46
0.0
 47
0.0
 48
0.0
 49
0.0
140
0.0
141
0.0
142
1.0
143
1.0
 70
  1712
 72
     1
 73
     0
 74
     0
  7

 75
     0
147
1.0
148
0.0
149
0.0
100
AcDbLayout
  1
Model
 70
     1
 71
     0
 10
0.0
 20
0.0
 11
279.4
 21
215.9
 12
0.0
 22
0.0
 32
0.0
 14
0.0
 24
0.0
 34
0.0
 15
279.4
 25
215.9
 35
0.0
146
0.0
 13
0.0
 23
0.0
 33
0.0
 16
1.0
 26
0.0
 36
0.0
 17
0.0
 27
1.0
 37
0.0
 76
     0
330
1F
331
29
  0
MLINESTYLE
  5
18
102
{ACAD_REACTORS
330
17
102
}
330
17
100
AcDbMlineStyle
  2
Standard
 70
     0
  3

 62
   256
 51
90.0
 52
90.0
 71
     2
 49
0.5
 62
   256
  6
BYLAYER
 49
-0.5
 62
   256
  6
BYLAYER
  0
ACDBPLACEHOLDER
  5
F
102
{ACAD_REACTORS
330
E
102
}
330
E
  0
SCALE
  5
48
102
{ACAD_REACTORS
330
47
102
}
330
47
100
AcDbScale
 70
     0
300
1:1
140
1.0
141
1.0
290
     1
  0
SCALE
  5
49
102
{ACAD_REACTORS
330
47
102
}
330
47
100
AcDbScale
 70
     0
300
1:2
140
1.0
141
2.0
290
     0
  0
SCALE
  5
4A
102
{ACAD_REACTORS
330
47
102
}
330
47
100
AcDbScale
 70
     0
300
1:4
140
1.0
141
4.0
290
     0
  0
SCALE
  5
4B
102
{ACAD_REACTORS
330
47
102
}
330
47
100
AcDbScale
 70
     0
300
1:5
140
1.0
141
5.0
290
     0
  0
SCALE
  5
4C
102
{ACAD_REACTORS
330
47
102
}
330
47
100
AcDbScale
 70
     0
300
1:8
140
1.0
141
8.0
290
     0
  0
SCALE
  5
4D
102
{ACAD_REACTORS
330
47
102
}
330
47
100
AcDbScale
 70
     0
300
1:10
140
1.0
141
10.0
290
     0
  0
SCALE
  5
4E
102
{ACAD_REACTORS
330
47
102
}
330
47
100
AcDbScale
 70
     0
300
1:16
140
1.0
141
16.0
290
     0
  0
SCALE
  5
4F
102
{ACAD_REACTORS
330
47
102
}
330
47
100
AcDbScale
 70
     0
300
1:20
140
1.0
141
20.0
290
     0
  0
SCALE
  5
50
102
{ACAD_REACTORS
330
47
102
}
330
47
100
AcDbScale
 70
     0
300
1:30
140
1.0
141
30.0
290
     0
  0
SCALE
  5
51
102
{ACAD_REACTORS
330
47
102
}
330
47
100
AcDbScale
 70
     0
300
1:40
140
1.0
141
40.0
290
     0
  0
SCALE
  5
52
102
{ACAD_REACTORS
330
47
102
}
330
47
100
AcDbScale
 70
     0
300
1:50
140
1.0
141
50.0
290
     0
  0
SCALE
  5
53
102
{ACAD_REACTORS
330
47
102
}
330
47
100
AcDbScale
 70
     0
300
1:100
140
1.0
141
100.0
290
     0
  0
SCALE
  5
54
102
{ACAD_REACTORS
330
47
102
}
330
47
100
AcDbScale
 70
     0
300
2:1
140
2.0
141
1.0
290
     0
  0
SCALE
  5
55
102
{ACAD_REACTORS
330
47
102
}
330
47
100
AcDbScale
 70
     0
300
4:1
140
4.0
141
1.0
290
     0
  0
SCALE
  5
56
102
{ACAD_REACTORS
330
47
102
}
330
47
100
AcDbScale
 70
     0
300
8:1
140
8.0
141
1.0
290
     0
  0
SCALE
  5
57
102
{ACAD_REACTORS
330
47
102
}
330
47
100
AcDbScale
 70
     0
300
10:1
140
10.0
141
1.0
290
     0
  0
SCALE
  5
58
102
{ACAD_REACTORS
330
47
102
}
330
47
100
AcDbScale
 70
     0
300
100:1
140
100.0
141
1.0
290
     0
  0
SCALE
  5
59
102
{ACAD_REACTORS
330
47
102
}
330
47
100
AcDbScale
 70
     0
300
1/128" = 1'-0"
140
0.0078125
141
12.0
290
     0
  0
SCALE
  5
5A
102
{ACAD_REACTORS
330
47
102
}
330
47
100
AcDbScale
 70
     0
300
1/64" = 1'-0"
140
0.015625
141
12.0
290
     0
  0
SCALE
  5
5B
102
{ACAD_REACTORS
330
47
102
}
330
47
100
AcDbScale
 70
     0
300
1/32" = 1'-0"
140
0.03125
141
12.0
290
     0
  0
SCALE
  5
5C
102
{ACAD_REACTORS
330
47
102
}
330
47
100
AcDbScale
 70
     0
300
1/16" = 1'-0"
140
0.0625
141
12.0
290
     0
  0
SCALE
  5
5D
102
{ACAD_REACTORS
330
47
102
}
330
47
100
AcDbScale
 70
     0
300
3/32" = 1'-0"
140
0.09375
141
12.0
290
     0
  0
SCALE
  5
5E
102
{ACAD_REACTORS
330
47
102
}
330
47
100
AcDbScale
 70
     0
300
1/8" = 1'-0"
140
0.125
141
12.0
290
     0
  0
SCALE
  5
5F
102
{ACAD_REACTORS
330
47
102
}
330
47
100
AcDbScale
 70
     0
300
3/16" = 1'-0"
140
0.1875
141
12.0
290
     0
  0
SCALE
  5
60
102
{ACAD_REACTORS
330
47
102
}
330
47
100
AcDbScale
 70
     0
300
1/4" = 1'-0"
140
0.25
141
12.0
290
     0
  0
SCALE
  5
61
102
{ACAD_REACTORS
330
47
102
}
330
47
100
AcDbScale
 70
     0
300
3/8" = 1'-0"
140
0.375
141
12.0
290
     0
  0
SCALE
  5
62
102
{ACAD_REACTORS
330
47
102
}
330
47
100
AcDbScale
 70
     0
300
1/2" = 1'-0"
140
0.5
141
12.0
290
     0
  0
SCALE
  5
63
102
{ACAD_REACTORS
330
47
102
}
330
47
100
AcDbScale
 70
     0
300
3/4" = 1'-0"
140
0.75
141
12.0
290
     0
  0
SCALE
  5
64
102
{ACAD_REACTORS
330
47
102
}
330
47
100
AcDbScale
 70
     0
300
1" = 1'-0"
140
1.0
141
12.0
290
     0
  0
SCALE
  5
65
102
{ACAD_REACTORS
330
47
102
}
330
47
100
AcDbScale
 70
     0
300
1-1/2" = 1'-0"
140
1.5
141
12.0
290
     0
  0
SCALE
  5
66
102
{ACAD_REACTORS
330
47
102
}
330
47
100
AcDbScale
 70
     0
300
3" = 1'-0"
140
3.0
141
12.0
290
     0
  0
SCALE
  5
67
102
{ACAD_REACTORS
330
47
102
}
330
47
100
AcDbScale
 70
     0
300
6" = 1'-0"
140
6.0
141
12.0
290
     0
  0
SCALE
  5
68
102
{ACAD_REACTORS
330
47
102
}
330
47
100
AcDbScale
 70
     0
300
1'-0" = 1'-0"
140
12.0
141
12.0
290
     0
  0
ENDSEC
  0
EOF
